PrimaNota.ru - самый крупный в мире бесплатный архив песенных текстов, аккордов, табулатур и нот


La Oreja De Van Gogh - Tardes De Invierno Por Madrid - таба, видео

Регистрация Запомнить меня
Войти через:  Facebook Google Twitter Vk Yandex Mail.ru

La Oreja De Van Gogh - Tardes De Invierno Por Madrid - таба, видео

Печатать
Просмотров: 164
+++++++++++++++++++++++++++++++++++++++++++++++++++++++
| La Oreja De Van Gogh- Tardes De Invierno Por Madrid |
+++++++++++++++++++++++++++++++++++++++++++++++++++++++


"La vida se pasa y yo me muero por ti..."


Tuning: EADGBe 
But with CAPO on 1st


Chords:

F:  133211 
Gm: 355333
A:  x02220 
Am: x02210
Bb: x13331
C:  x32010
Dm: xx0231



Intro

1.
e|-----------------------------------|
B|---6--5--3-------------------------|
G|------------5--53---5--5--5--5--5--|
D|-33-33-33-33-33---33-33-33-33-33-3-|
A|-----------------------------------|
E|-----------------------------------|
   F


Verse


"Un café con sal..."
2.
e|---------------------------------------------------------------------------------------|
B|---6--5--3---------------------------6--5--3-------------------------------------------|
G|------------5--53---5--5--5--5--5-------------5--53------------------------------------|
D|-33-33-33-33-33---33-33-33-33-33-3-33-33-33-33-33-----5--5--5--5--5----7--7-7---3--3-3-|
A|----------------------------------------------------33-33-33-33-33-3-55-55-5--11-11-1--|
E|---------------------------------------------------------------------------------------|
   F                                                  C                Dm       Bb

3.
e|-----------------------------------|
B|---6--5--3-------------------------|
G|------------5--53---5--5--5--5--5--|
D|-33-33-33-33-33---33-33-33-33-33-3-|
A|-----------------------------------|
E|-----------------------------------|
   F

"No quiero ganar..."
4.
e|---------------------------------------------------------------------------------------|
B|---6--5--3---------------------------6--5--3-------------------------------------------|
G|------------5--53---5--5--5--5--5-------------5--53------------------------------------|
D|-33-33-33-33-33---33-33-33-33-33-3-33-33-33-33-33-----5--5--5--5--5----7--7-7---3--3-3-|
A|----------------------------------------------------33-33-33-33-33-3-55-55-5--11-11-1--|
E|---------------------------------------------------------------------------------------|
   F                                                  C                Dm       Bb

5.
e|-------------------|
B|-------------------|
G|-------------------|
D|---5--5--5x--------|
A|-33-33-33----------|
E|-------------------|
   C



F                            C
Un café con sal. ganas de llorar.
             Dm
mi mundo empezando a temblar,
    Bb                       F
presiento que se acerca el final.

F                                  C
no quiero ganar. ahora eso qué más da.
              Dm               Bb                   C
estoy cansada ya de inventar excusas que no saben andar.



Pre-Chorus


        Dm  Bb                          F        C     Dm     Bb
y sólo quedarán los buenos momentos de ayer que fueron de los dos.
                     C
y hoy sólo quiero creer



Chorus

      F                                    C
Que recordarás las tardes de invierno por madrid,
                   Dm
las noches enteras sin dormir.
                 A                         F
la vida pasaba y yo sentía que me iba a morir de amor
                      C                             Dm
al verte esperando en mi portal sentado en el suelo sin pensar
                     Bb    C
que puedes contar conmigo.


Outro

F

Verse

F                               C
Nunca hubo maldad. sólo ingenuidad.
               Dm                  Bb                      F
pretendiendo hacernos creer que el mundo estaba a nuestros pies.
             F                                         C
cuando el sueño venga a por mí en silencio voy a construir
           Dm            Bb                    C
una vida a todo color donde vivamos juntos los dos.


Pre-Chorus


        Dm  Bb                          F        C     Dm     Bb
y sólo quedarán los buenos momentos de ayer que fueron de los dos.
                     C
y hoy sólo quiero creer



Chorus

      F                                    C
Que recordarás las tardes de invierno por madrid,
                   Dm
las noches enteras sin dormir.
                 A                         F
la vida pasaba y yo sentía que me iba a morir de amor
                      C                             Dm
al verte esperando en mi portal sentado en el suelo sin pensar
                     Bb          C
que puedes contar conmigo para siempre



Bridge

        F
Y no puedo evitar echarte de menos
   A                             Dm
mientras das la mano a mi tiempo y  te vas.
                     Bb              C
yo siento que quiero verte y verte y pienso


Chorus

      F                                    C
Que recordarás las tardes de invierno por madrid,
                   Dm
las noches enteras sin dormir.
                 A                         F
la vida pasaba y yo sentía que me iba a morir de amor
                      C                             Dm
al verte esperando en mi portal sentado en el suelo sin pensar
                     A
que puedes contar conmigo 



Outro

      Dm                              Am
que recordarás las tardes de invierno por madrid,
                   Bb
las noches enteras sin dormir.
                  Gm           A              Dm
la vida se pasa y yo me muero,   me muero por ti.




Please rate thanks!!


Lyrics:

Un café con sal ganas de llorar.
mi mundo empezando a temblar,
presiento que se acerca el final.

no quiero ganar. ahora eso qué más da.
estoy cansada ya de inventar excusas que no saben andar.

y sólo quedarán los buenos momentos de ayer que fueron de los dos.
y hoy sólo quiero creer ...

Que recordarás las tardes de invierno por madrid,
las noches enteras sin dormir.
la vida pasaba y yo sentía que me iba a morir de amor
al verte esperando en mi portal sentado en el suelo sin pensar
que puedes contar conmigo.

Nunca hubo maldad sólo ingenuidad.
pretendiendo hacernos creer que el mundo estaba a nuestros pies.
cuando el sueño venga a por mí en silencio voy a construir
una vida a todo color donde vivamos juntos los dos.
y sólo quedarán los buenos momentos de ayer que fueron de los dos.
y hoy sólo quiero creer...

para siempre.

Y no puedo evitar echarte de menos
mientras das la mano a mi tiempo y te vas.
yo siento que quiero verte y verte y pienso

que recordarás las tardes de invierno por madrid,
las noches enteras sin dormir.
la vida se pasa y yo me muero, me muero por ti.



+++++++++++++++++++++++++++++++++
| Raileff                       |
| Underground__Dora@Hotmail.Com |
+++++++++++++++++++++++++++++++++
Добавлено: 22.04.2012
Другие материалы по этой песне:
  • Аккорды и текст

Страница создана 22.04.2012
http://primanota.ru/la-oreja-de-van-gogh/tardes-de-invierno-por-madrid-chords.htm
Привет, Гость.
Предлагаем пройти революционный курс по гитаре.
Подарок от PrimaNota.Ru, забирай!