PrimaNota.ru - самый крупный в мире бесплатный архив песенных текстов, аккордов, табулатур и нот


Kyo - Respire - аккорды и текст, видео

Регистрация Запомнить меня
Войти через:  Facebook Google Twitter Vk Yandex Mail.ru

Kyo - Respire - аккорды и текст, видео

Печатать
Просмотров: 79
Авторы: Florian Dubos, Benoît Poher, Nicolas Chassagne, Fabien Dubos

Respire
Kyo
CAPO II

Intro :

  Em                                C                             x2
|---------------------------------|---------------------------------|
|-----------------2-2-2-2-3-3-3-3-|-5-5-5-5-3-3-3-3-2-2-2-2-3-3-3-3-|
|-2-2-2-2-4-4-4-4-----------------|---------------------------------|
|---------------------------------|---------------------------------|
|---------------------------------|---------------------------------|
|---------------------------------|---------------------------------|


Em
Glisser sur les ondes ensemble, se dérober au monde
       C
Jeter tout ce qui nous échappe, ne faire qu'effleurer la surface
        Em
Même un peu d'excès parfois mais pas trop
Juste ce qu'on se doit
         C
Pour se sentir bien vivant il suffit finalement que l'on


   Em  B  C
Respire
       G
Un peu du nouvel air
   B
Prions pour ne jamais
   Em  B  C
Mourir
        G
Avant d'avoir offert
   B                Em
La vie à la planète entière


Em                                C                             
|---------------------------------|---------------------------------|
|-----------------2-2-2-2-3-3-3-3-|-5-5-5-5-3-3-3-3-2-2-2-2-3-3-3-3-|
|-2-2-2-2-4-4-4-4-----------------|---------------------------------|
|---------------------------------|---------------------------------|
|---------------------------------|---------------------------------|
|---------------------------------|---------------------------------|


       Em
On est bien jeune et parfois c'est sur nos épaules trop étroites
        C
Que réside le poids du ciel on pourrait le toucher de nos doigts
           Em
Je n'veux plus rentrer chez moi, mais chez moi où c'est déjà ?
        C
L'important c'est qu'ensemble on n'oublie pas
Qu'il suffit que l'on


   Em  B  C
Respire
       G
Un peu du nouvel air
   B
Prions pour ne jamais
   Em  B  C
Mourir
        G
Avant d'avoir offert
   B                 C
La vie à la planète entière


Instru :


  C              Em           x3 (il dit "Seuls" 4 fois la 3ème fois)                          C              B7
|--------------|----------------|--------------|-----------------|
|-----3-----5--|------3------5--|-----3------5-|-2-2-2-2-2-2-2-2-|
|-2-2---2-2----|--2-2----2-2----|-2-2----2-2---|-----------------|
|--------------|----------------|--------------|-----------------|
|--------------|----------------|--------------|-----------------|
|--------------|----------------|--------------|-----------------|


  Em  B  C
Respire
       G
Un peu du nouvel air
   B
Prions pour ne jamais
   Em  B  C
Mourir
        G
Avant d'avoir offert
   B                Em
La vie à la planète, allez !


Em                                C                             
|---------------------------------|---------------------------------|
|-----------------2-2-2-2-3-3-3-3-|-5-5-5-5-3-3-3-3-2-2-2-2-3-3-3-3-|
|-2-2-2-2-4-4-4-4-----------------|---------------------------------|
|---------------------------------|---------------------------------|
|---------------------------------|---------------------------------|
|---------------------------------|---------------------------------|


Em
Si la vie n'est qu'un rêve alors rien n'a commencé
       C
Et si rien n'a commencé alors on peut tout refaire
Em
Refaire
On peut tout refaire   x4
Добавлено: 04.05.2016
Другие материалы по этой песне:
  • Аккорды и текст

Страница создана 07.03.2012
http://primanota.ru/kyo/respire-chords.htm
Привет, Гость.
Предлагаем пройти революционный курс по гитаре.
Подарок от PrimaNota.Ru, забирай!