PrimaNota.ru - самый крупный в мире бесплатный архив песенных текстов, аккордов, табулатур и нот


Kutless - Somewhere In The Sky - текст песни, таба, видео

Регистрация Запомнить меня
Войти через:  Facebook Google Twitter Vk Yandex Mail.ru

Kutless - Somewhere In The Sky - текст песни, таба, видео

Печатать
Просмотров: 228
Уроки эстрадного вокала в Санкт-Петербурге
Kutless - Somewhere in the Sky

Tabbed by: sumguy67
Tuning: Drop C#
PM = Palm Mute
p = Pull Off
/ = Slide Up
* = Harmonic

I'm not too sure about the verse.

Intro x2:
Rythm
d#|--------------------------------|
A#|--------------------------------|
F#|--------------------------------|
C#|-7777-10101010-000-00-0-00-0000-|
G#|-7777-10101010-000-00-0-00-0000-|
C#|-7777-10101010-000-00-0-00-0000-|

Lead
d#|--------------------------------|
A#|--------------------------------|
F#|-9999-12121212------------------|
C#|---------------000-00-0-00-0000-|
G#|-7777-10101010-000-00-0-00-0000-|
C#|---------------000-00-0-00-0000-|

Verse x3:
Rythm
d#|-----------------------------|
A#|-----------------------------|
F#|----5---------5--------------|
C#|---5-5-------5-5-------------|
G#|--3----3----3----3-----------|
C#|-3---------3-----------------|

Lead
d#|-8*--------10*---------------|
A#|-----------------------------|
F#|-----------------7p5-7p5-7p5-|
C#|-----------------------------|
G#|-----------------------------|
C#|-----------------------------|

Pre Chorus:
d#|-----------------|
A#|-----------------|
F#|-5---------------|
C#|-5------55555555-|
G#|-3------55555555-|
C#|--------55555555-|

Chorus:
Rythm
d#|--------------------------------|
A#|--------------------------------|
F#|--------------------------------|
C#|-7777-10101010-000-00-0-00-0000-|
G#|-7777-10101010-000-00-0-00-0000-|
C#|-7777-10101010-000-00-0-00-0000-|

Lead                                   x2
d#|--------------------------------|
A#|--------------------------------|
F#|-9999-12121212------------------|
C#|---------------000-00-0-00-0000-|
G#|-7777-10101010-000-00-0-00-0000-|
C#|---------------000-00-0-00-0000-|

Rythm
d#|--------------------|
A#|--------------------|
F#|--------------------|
C#|-77777777-3333-5555-|
G#|-77777777-3333-5555-|
C#|-77777777-3333-5555-|

Lead
d#|--------------------|
A#|--------------------|
F#|-99999999-5555-7777-|
C#|--------------------|
G#|-77777777-3333-5555-|
C#|--------------------|

Rythm
d#|--------------------------------|
A#|--------------------------------|
F#|--------------------------------|
C#|-7777-10101010-000-00-0-00-0000-|
G#|-7777-10101010-000-00-0-00-0000-|
C#|-7777-10101010-000-00-0-00-0000-|

Lead
d#|--------------------------------|
A#|--------------------------------|
F#|-9999-12121212------------------|
C#|---------------000-00-0-00-0000-|
G#|-7777-10101010-000-00-0-00-0000-|
C#|---------------000-00-0-00-0000-|

Repeat Verse, Pre Chorus, and Chorus

Bridge x4:
d#|--------------------------------------|
A#|--------------------------------------|
F#|--------------------------------------|
C#|-0-0022/3-00-22/3-0000-8705707-8705707|
G#|-0-0022/3-00-22/3-0000-8705707-8705707|
C#|-0-0022/3-00-22/3-0000-8705707-8705707|
PM  . ..     ..      ...

Last Chorus:
d#|-------------|
A#|-------------|
F#|-------------|
C#|-7--0---5-55-|
G#|-7--0---5-55-|
G#|-7--0---5-55-|
PM           ..

Rythm
d#|--------------------------------|
A#|--------------------------------|
F#|--------------------------------|
C#|-7777-10101010-000-00-0-00-0000-|
G#|-7777-10101010-000-00-0-00-0000-|
C#|-7777-10101010-000-00-0-00-0000-|

Lead
d#|--------------------------------|
A#|--------------------------------|
F#|-9999-12121212------------------|
C#|---------------000-00-0-00-0000-|
G#|-7777-10101010-000-00-0-00-0000-|
C#|---------------000-00-0-00-0000-|

Rythm
d#|--------------------|
A#|--------------------|
F#|--------------------|
C#|-77777777-3333-5555-|
G#|-77777777-3333-5555-|
C#|-77777777-3333-5555-|


Lead
d#|--------------------|
A#|--------------------|
F#|-99999999-5555-7777-|
C#|--------------------|
G#|-77777777-3333-5555-|
C#|--------------------|

Rythm                               add this the last time
d#|--------------------------------|---|
A#|--------------------------------|---|
F#|--------------------------------|---|
C#|-7777-10101010-000-00-0-00-0000-|-0-|
G#|-7777-10101010-000-00-0-00-0000-|-0-|
C#|-7777-10101010-000-00-0-00-0000-|-0-|

Lead                                       x2
d#|--------------------------------|---|
A#|--------------------------------|---|
F#|-9999-12121212------------------|---|
C#|---------------000-00-0-00-0000-|-0-|
G#|-7777-10101010-000-00-0-00-0000-|-0-|
C#|---------------000-00-0-00-0000-|-0-|
Добавлено: 17.03.2012
Другие материалы по этой песне:

Страница создана 17.03.2012
http://primanota.ru/kutless/somewhere-in-the-sky-chords.htm
Привет, Гость.
Предлагаем пройти революционный курс по гитаре.
Подарок от PrimaNota.Ru, забирай!