PrimaNota.ru - самый крупный в мире бесплатный архив песенных текстов, аккордов, табулатур и нот


Kutless - Complete - текст песни, таба, видео

Регистрация Запомнить меня
Войти через:  Facebook Google Twitter Vk Yandex Mail.ru

Kutless - Complete - текст песни, таба, видео

Печатать
Просмотров: 117
PM= Palm mute
*= can play xxx121212 in place of this chord or vice-versa.

e|-----------------------------------------------|
B|-----------------------------------------------|
G|-----------------------------7--7--------------| Intro/Verse
D|11--11--11--11--11--7--7--7--7--7--7--7--------|
A|-9--9---9----9---9--5--5--5--5--5--7--7--------|
D|-9--9---9----9---9--5--5--5--------7--7--------|
                               *  *
e|-----------------------------------------------|
B|-----------------------------------------------|
G|-----------------------------------------------| Pre-Chorus
D|-5--7------------------------------------------| (only played after
A|-5--7------------------------------------------|  first verse)
D|-5--7------------------------------------------|

e|-----------------------------------------------|
B|-----------------------------------------------|
G|-----------------------------------------------| 
D|-12---12---12---5---5---7---7---5---5----------| Chorus
A|-12---12---12---5---5---7---7---5---5----------|  
D|-12---12---12---5---5---7---7---5---5----------|
    *    *    *
Verse

Chorus

e|-----------------------------------------------|
B|-----------------------------------------------|
G|-----------------------------------------------|  Bridge
D|-9-9-9-11-11-11-12-12-14-12-0-5----------------| (part 1)
A|-9-9-9-11-11-11-12-12-14-12-0-5----------------|  
D|-9-9-9-11-11-11-12-12-14-12-0-5----------------|

e|-----------------------------------------------|
B|-----------------------------------------------|
G|-----------------------------------------------|  Bridge
D|-9-9-9-11-11-11-12-12-14-12-0-5-7-7-7-7-7-7-7-7| (part 2)
A|-9-9-9-11-11-11-12-12-14-12-0-5-7-7-7-7-7-7-7-7|  
D|-9-9-9-11-11-11-12-12-14-12-0-5-7-7-7-7-7-7-7-7|
                                  PM PM PM PM PM 
Chorus

End on xxx121212
                 Number of chords do not necessarily
                 reflect how many times you pluck.The
                 bridge is very close as far as plucking
                 but I think there should be a few more 
                 palm muted 7's in there. Just play it
                 until he finishes singing "Amazing Grace
                 is why I'm Singing."


Добавлено: 06.09.2013
Другие материалы по этой песне:
  • Аккорды и текст

Страница создана 06.09.2013
http://primanota.ru/kutless/complete-chords.htm
Привет, Гость.
Предлагаем пройти революционный курс по гитаре.
Подарок от PrimaNota.Ru, забирай!