PrimaNota.ru - самый крупный в мире бесплатный архив песенных текстов, аккордов, табулатур и нот


Kult - Życie Jest Piękne - аккорды и текст, видео

Регистрация Запомнить меня
Войти через:  Facebook Google Twitter Vk Yandex Mail.ru

Kult - Życie Jest Piękne - аккорды и текст, видео

Печатать
Просмотров: 130
Życie Jest Piękne
Kult
Kult - Życie jest piękne
Tabbed by: damienos

Tuning: Standard

[intro]
F#m A B
F#m A B
F#m A B
F#m A B

[verse 1]
           F#m 
Życie jest piękne
         A             B         F#m 
Tylko dlaczego ja chcę sobie je obrzydzić?
         A           B           F#m 
Dlaczego bezustannie staram się zohydzić?
A      B         F#m  A  B
Pytam, pytam, pytam

[verse 2]
           F#m 
Życie jest piękne
         A           B           F#m 
Tylko dlaczego nie potrafię go docenić?
         A              B               F#m 
Z uporem godnym lepszej sprawy wszystko zmienić?
A      B         F#m  A  B
Pytam, pytam, pytam

[chorus]
A C#m A G
A C#m A G

[intro]
F#m A B
F#m A B
F#m A B
F#m A B

[verse 3]
           F#m 
Życie jest piękne
         A           B              F#m 
Tylko dlaczego nie potrafię się nim cieszyć?
        A             B             F#m 
Jedynie bezustannie w bramach łeb kaleczyć?|
A      B         F#m  A  B
Pytam, pytam, pytam

[verse 4]
           F#m 
Życie jest piękne
         A              B       F#m 
Tylko dlaczego nie chcę tego zauważyć?
        A            B            F#m 
By je pokochać nie potrafię się odważyć?
A      B         F#m  A  B
Pytam, pytam, pytam

[chorus]
A C#m A G
A C#m A G

[bridge]
F#m
A
C#m
E D

[intro]
F#m A B
F#m A B
F#m A B
F#m A B

[verse 5]
           F#m 
Jestem człowiekiem
         A          B          F#m 
Co swoje wie, ale żadnym autorytetem
             A             B         F#m 
Ni mniej, ni więcej, wcale nikim wyjątkowym
  A      B             F#m
A sercem kocham, nie z głowy
A      B           F#m  A  B
Sercem kocham, nie z głowy

[chorus]
A C#m A G
A C#m A G

[solo]
   F#m                      A            B
e|------------------------|------------|-------------|
B|------------------------|------------|-------------|
G|------9s11-11--9--------|--------6h9-|--------8h11-|
D|----11-----------11s9-7-|-7--7-7-----|-9--9-9------|
A|--9---------------------|------------|-------------|
E|------------------------|------------|-------------|
   F#m                      A            B
e|------------------------|------------|-------------|
B|------------------------|------------|-------------|
G|------9s11-11--9--------|--------6h9-|--------8h11-|
D|----11-----------11s9-7-|-7--7-7-----|-9--9-9------|
A|--9---------------------|------------|-------------|
E|------------------------|------------|-------------|
   F#m                      A            B
e|------------------------|------------|-------------|
B|------------------------|------------|-------------|
G|------9s11-11--9--------|--------6h9-|--------8h11-|
D|----11-----------11s9-7-|-7--7-7-----|-9--9-9------|
A|--9---------------------|------------|-------------|
E|------------------------|------------|-------------|
   F#m                      A            B
e|------------------------|------------|-------------|
B|------------------------|------------|-------------|
G|------9s11-11--9--------|--------6h9-|--------8h11-|
D|----11-----------11s9-7-|-7--7-7-----|-9--9-9------|
A|--9---------------------|------------|-------------|
E|------------------------|------------|-------------|

[outro]
   F#m F#m                   
e|------------------------|------------|-------------|
B|------------------------|------------|-------------|
G|------9s11-11--9--------|--------6h9-|--------8h11-|
D|----11-----------11s9-7-|-7--7-7-----|-9--9-9------|
A|--9---------------------|------------|-------------|
E|------------------------|------------|-------------|
   F#m F#m                    
e|------------------------|------------|-------------|
B|------------------------|------------|-------------|
G|------9s11-11--9--------|--------6h9-|--------8h11-|
D|----11-----------11s9-7-|-7--7-7-----|-9--9-9------|
A|--9---------------------|------------|-------------|
E|------------------------|------------|-------------|
   F#m F#m                    
e|------------------------|------------|-------------|
B|------------------------|------------|-------------|
G|------9s11-11--9--------|--------6h9-|--------8h11-|
D|----11-----------11s9-7-|-7--7-7-----|-9--9-9------|
A|--9---------------------|------------|-------------|
E|------------------------|------------|-------------|
   F#m F#m                    
e|-----------|
B|-----------|
G|------9s11-|
D|----11-----|
A|--9--------|
E|-----------|

enjoy!

Добавлено: 10.05.2016
Вам также может быть интересно:
Другие материалы по этой песне:
  • Аккорды и текст

Страница создана 10.05.2016
http://primanota.ru/kult/zycie-jest-piekne-chords.htm
Привет, Гость.
Предлагаем пройти революционный курс по гитаре.
Подарок от PrimaNota.Ru, забирай!