PrimaNota.ru - самый крупный в мире бесплатный архив песенных текстов, аккордов, табулатур и нот


Kult - Lewy Czerwcowy - аккорды и текст, видео

Регистрация Запомнить меня
Войти через:  Facebook Google Twitter Vk Yandex Mail.ru

Kult - Lewy Czerwcowy - аккорды и текст, видео

Печатать
Просмотров: 102
Уроки эстрадного вокала в Санкт-Петербурге
Авторы текста: Kazik Staszewski
Lewy Czerwcowy
Kult
Kult - Lewy czerwcowy
Tabbed by: damienos

Tuning: Standard


[intro]
               G5 G5 G5 G5 E5
e|----------------------------------|
B|----------------------------------|
G|------0---0--4--------4--2-0-2-0--|
D|--0-2---2-------------------------|
A|----------------------------------|
E|----------------------------------|
               G5 G5 G5 G5 E5
e|----------------------------------|
B|----------------------------------|
G|------0---0--4--------4--2-0-2-0--|
D|--0-2---2-------------------------|
A|----------------------------------|
E|----------------------------------|
               G5 G5 G5 G5 E5
e|----------------------------------|
B|----------------------------------|
G|------0---0--4--------4--2-0-2-0--|
D|--0-2---2-------------------------|
A|----------------------------------|
E|----------------------------------|
               G5 G5 G5 G5 E5
e|----------------------------------|
B|----------------------------------|
G|------0---0--4--------4--2-0-2-0--|
D|--0-2---2-------------------------|
A|----------------------------------|
E|----------------------------------|

G5 G5 G5 G5 E5
G5 G5 G5 G5 E5
G5 G5 G5 G5 E5
G5 G5 G5 G5 E5

[verse 1]
     G5    G5   G5      G5   E5
Żona pogłaskała mnie po buzi rano
 G5 G5 G5  G5  E5
Umyłem się pod kranem
    G5    G5  G5 G5   E5
Pożegnałem  uściskiem dziatki maleńkie
       G5 G5  G5  G5  E5
Szofer wiezie mnie  z wdziękiem

[verse 2]
   G5    G5    G5    G5    E5
Czytałem będąc młodym  chłopakiem
     G5 G5  G5   G5     E5
"Jak Wojtek został  strażakiem"
      G5 G5  G5  G5  E5
Teraz jestem starszy i poważniejszy
    G5    G5  G5     G5 E5
I lektury mam trochę mądrzejsze

[interlude]
G5 G5 G5 G5 E5
G5 G5 G5 G5 E5
G5 G5 G5 G5 E5
G5 G5 G5 G5 E5

[verse 3]
    G5     G5     G5     G5   E5
Z kamienną twarzą siedzę przy stole
         G5    G5   G5   G5    E5
Przy nim ludzie  których mniej trochę wolę
   G5    G5      G5    G5    E5
To stało się tak nagle jakby dziełem przypadku
      G5   G5   G5   G5    E5
Kto z nas? Może Pan, Panie Waldku?

[chorus]
          C5 C5   C5      C5  A5
Tak panie Waldku, Pan się nie boi
     C5  C5  C5 C5    A5
Dwie trzecie Sejmu za Panem stoi
      G5 G5   G5      G5  E5
Panie Waldku, Pan się nie boi
     G5 G5 G5    G5 E5
Cały naród murem za Panem stoi

[interlude]
      G5 G5 G5 G5 E5
Panie Waldku
      G5 G5 G5 G5 E5
Panie Waldku
      G5 G5 G5 G5 E5
Panie Waldku
      G5 G5 G5 G5 E5
Panie Waldku

[verse 4]
       G5   G5    G5   G5  E5
Słońce pada oknem na nasze głowy
      G5  G5  G5     G5   E5
W ten poranek piękny czerwcowy
   G5      G5      G5    G5  E5
Za ścianą, słyszę, kłócą się frakcje
      G5   G5    G5   G5  E5
W tym roku chyba nici z wakacji
nici z wakacji

[interlude]
      G5 G5 G5 G5 E5
Panie Waldku
      G5 G5 G5 G5 E5
Panie Waldku
      G5 G5 G5 G5 E5
Panie Waldku
      G5 G5 G5 G5 E5
Panie Waldku

[verse 5]
     G5   G5 G5     G5  E5
Obserwuję paznokcie pod stołem
    G5  G5 G5      G5 E5
Nie daję   poznać, że trochę się boję
       G5  G5  G5 G5   E5
Trzeba trzymać fason w każdej chwili
      G5     G5    G5       G5  E5
Nawet wtedy, kiedy wszystko się wali

[chorus]
          C5 C5   C5      C5  A5
Tak panie Waldku, Pan się nie boi
     C5  C5  C5 C5    A5
Dwie trzecie Sejmu za Panem stoi
      G5 G5   G5      G5  E5
Panie Waldku, Pan się nie boi
       G5 G5  G5    G5 E5
Pan prezydent także za Panem stoi

[interlude]
               G5 G5 G5 G5 E5
e|----------------------------------|
B|----------------------------------|
G|-------------4--------4--2-0-2-0--|
D|----------------------------------|
A|----------------------------------|
E|----------------------------------|
                     Panie Waldku

               G5 G5 G5 G5 E5
e|----------------------------------|
B|----------------------------------|
G|------0---0--4--------4--2-0-2-0--|
D|--0-2---2-------------------------|
A|----------------------------------|
E|----------------------------------|
                     Panie Waldku

               G5 G5 G5 G5 E5
e|----------------------------------|
B|----------------------------------|
G|------0---0--4--------4--2-0-2-0--|
D|--0-2---2-------------------------|
A|----------------------------------|
E|----------------------------------|
                     Panie Waldku

               G5 G5 G5 G5 E5
e|----------------------------------|
B|----------------------------------|
G|------0---0--4--------4--2-0-2-0--|
D|--0-2---2-------------------------|
A|----------------------------------|
E|----------------------------------|
                     Panie Waldku

[verse 6]
       G5     G5    G5  G5     E5
Trzeba szybko robić coś konkretnego
    G5 G5  G5 G5   E5
Bo inaczej wywloką stąd każdego
        G5      G5     G5    G5 E5
Już nie słucham co się dzieje   obok na sali
    G5    G5     G5 G5  E5
Właściwie to się zdecydowałem!

[chorus]
          C5 C5   C5      C5  A5
Tak panie Waldku, Pan się nie boi
     C5  C5  C5 C5    A5
Dwie trzecie Sejmu za Panem stoi
      G5 G5   G5      G5  E5
Panie Waldku, Pan się nie boi
     G5 G5 G5    G5 E5
Cały naród murem za Nami stoi

[solo]
    G5 G5 G5 G5 E5
e|----------------------------------------|
B|----------------------------------------|
G|--16-16-16-16-14-12-----------------12--|
D|--------------------14-12-----12h14-----|
A|---------------------------14-----------|
E|----------------------------------------|
          Panie Waldku

    G5 G5 G5 G5 E5
e|----------------------------------------|
B|--------------17-15--12-15-15-15-12-----|
G|--16-16-16-16---------------------------|
D|----------------------------------------|
A|----------------------------------------|
E|----------------------------------------|
          Panie Waldku

    G5 G5  G5   G5    E5
e|-----12--15---12-15/17-15--12-15-------|
B|--15-----------------------------------|
G|---------------------------------------|
D|---------------------------------------|
A|---------------------------------------|
E|---------------------------------------|
           Panie      Waldku

    G5 G5 G5 G5          E5
e|--15/17-17-17-17-17-17-17/19-19-19-19--|
B|---------------------------------------|
G|---------------------------------------|
D|---------------------------------------|
A|---------------------------------------|
E|---------------------------------------|
          Panie          Waldku

[outro]

G5 G5 G5 G5 E5
      Panie Waldku
G5 G5 G5 G5 E5
      Panie Waldku
G5 G5 G5 G5 E5
      Panie Waldku
G5 G5 G5 G5 E5
      Panie Waldku
G5 G5


enjoy!
Добавлено: 13.02.2016
Другие материалы по этой песне:
  • Аккорды и текст

Страница создана 13.02.2016
http://primanota.ru/kult/lewy-czerwcowy-chords.htm
Привет, Гость.
Предлагаем пройти революционный курс по гитаре.
Подарок от PrimaNota.Ru, забирай!