PrimaNota.ru - самый крупный в мире бесплатный архив песенных текстов, аккордов, табулатур и нот


Kult - Marność - аккорды и текст, видео

Регистрация Запомнить меня
Войти через:  Facebook Google Twitter Vk Yandex Mail.ru

Kult - Marność - аккорды и текст, видео

Печатать
Просмотров: 241
Уроки эстрадного вокала в Санкт-Петербурге
Marność
Kult
Kult - Marność
Tabbed by: damienos

Tuning: Standard


[intro]
   Bb   D#   Bb     Dm         Bb   D#   Bb     Dm     Bb   D#   Bb     Dm         Bb   D#   Bb     Dm
e|-6--6/8--8/10--10/13--13/15\-6--6/8--8/10--10/13--13\6--6/8--8/10--10/13--13/15\-6--6/8--8/10--10/13-|
B|-----------------------------------------------------------------------------------------------------|
G|-----------------------------------------------------------------------------------------------------|
D|-----------------------------------------------------------------------------------------------------|
A|-----------------------------------------------------------------------------------------------------|
E|-----------------------------------------------------------------------------------------------------|

[verse 1]
Bb         D#          Bb       Dm
e|-----------------------------------13\-6--|
B|------------------------------------------|
G|------------------------------------------|
D|------------------------------------------|
A|------------------------------------------|
E|------------------------------------------|
  Kto ci zapłaci za te lata utracone?

Bb          D#               Bb          Dm
e|----------------------------------------------13-----|
B|-----------------------------------------------------|
G|-----------------------------------------------------|
D|-----------------------------------------------------|
A|-----------------------------------------------------|
E|-----------------------------------------------------|
  Kto cię nagrodzi za to, że brałeś jego stronę?

Bb          D#             Bb            Dm
e|--------------------------------------------13\-6--|
B|---------------------------------------------------|
G|---------------------------------------------------|
D|---------------------------------------------------|
A|---------------------------------------------------|
E|---------------------------------------------------|
  Życie jak potok płynie i tamto już nie wróci

Bb       D#           Bb         Dm
e|--------------------------------------10\-6--|
B|---------------------------------------------|
G|---------------------------------------------|
D|---------------------------------------------|
A|---------------------------------------------|
E|---------------------------------------------|
  A mocą swoich rąk potoku nie zawrócisz

[chorus]
Cm
e|----------------8\-3--|
B|----------------------|
G|----------------------|
D|----------------------|
A|----------------------|
E|----------------------|
  Kto cię oszukał?

Cm
e|----------------8\-6--|
B|----------------------|
G|----------------------|
D|----------------------|
A|----------------------|
E|----------------------|
  Kto wykorzystał?

Cm
e|-----------------8\-3--|
B|-----------------------|
G|-----------------------|
D|-----------------------|
A|-----------------------|
E|-----------------------|
  Nie wiem dlaczego

Cm
e|-------------------8\-6--|
B|-------------------------|
G|-------------------------|
D|-------------------------|
A|-------------------------|
E|-------------------------|
  Śmiejesz się z tego...

[verse 2]
Bb          D#              Bb             Dm
e|------------------------------------------------13\-6--|
B|-------------------------------------------------------|
G|-------------------------------------------------------|
D|-------------------------------------------------------|
A|-------------------------------------------------------|
E|-------------------------------------------------------|
  To słońce i te drzewa nie naszych rąk są dziełem

Bb         D#                 Bb         Dm
e|-------------------------------------------10/-13--|
B|---------------------------------------------------|
G|---------------------------------------------------|
D|---------------------------------------------------|
A|---------------------------------------------------|
E|---------------------------------------------------|
  Zanim my tu przyszliśmy, to one już tu były

Bb           D#              Bb                  Dm
e|----------------------------------------------------13\-6--|
B|-----------------------------------------------------------|
G|-----------------------------------------------------------|
D|-----------------------------------------------------------|
A|-----------------------------------------------------------|
E|-----------------------------------------------------------|
  Jakbyś nie starał się, nie ściągniesz słońca z nieba

Bb          D#             Bb                  Dm
e|---------------------------------------------------10\-6--|
B|----------------------------------------------------------|
G|----------------------------------------------------------|
D|----------------------------------------------------------|
A|----------------------------------------------------------|
E|----------------------------------------------------------|
  A tych co mówią inaczej, uwierz, słuchać nie trzeba

[chorus]
Cm
e|----------------8\-3--|
B|----------------------|
G|----------------------|
D|----------------------|
A|----------------------|
E|----------------------|
  Kto cię oszukał?

Cm
e|----------------8\-6--|
B|----------------------|
G|----------------------|
D|----------------------|
A|----------------------|
E|----------------------|
  Kto wykorzystał?

Cm
e|-----------------8\-3--|
B|-----------------------|
G|-----------------------|
D|-----------------------|
A|-----------------------|
E|-----------------------|
  Nie wiem dlaczego

Cm
e|-------------------8\-6--|
B|-------------------------|
G|-------------------------|
D|-------------------------|
A|-------------------------|
E|-------------------------|
  Śmiejesz się z tego...

[outro]
   Bb   D#   Bb     Dm         Bb   D#   Bb     Dm         Bb
e|-6--6/8--8/10--10/13--13/15\-6--6/8--8/10--10/13--13/15\-6--|
B|------------------------------------------------------------|
G|------------------------------------------------------------|
D|------------------------------------------------------------|
A|------------------------------------------------------------|
E|------------------------------------------------------------|

      D#   Bb     Dm         Bb   D#   Bb     Dm     Cm 
e|--6/8--8/10--10/13--13/15\-6--6/8--8/10--10/13--13\6--|
B|------------------------------------------------------|
G|------------------------------------------------------|
D|------------------------------------------------------|
A|------------------------------------------------------|
E|------------------------------------------------------|

Cm
e|----------------8\-3--|
B|----------------------|
G|----------------------|
D|----------------------|
A|----------------------|
E|----------------------|

Cm
e|----------------8\-6--|
B|----------------------|
G|----------------------|
D|----------------------|
A|----------------------|
E|----------------------|

Cm
e|----------------8\-3--|
B|----------------------|
G|----------------------|
D|----------------------|
A|----------------------|
E|----------------------|

enjoy!
Добавлено: 13.02.2016
Другие материалы по этой песне:
  • Аккорды и текст

Страница создана 13.02.2016
http://primanota.ru/kult/marnosc-chords.htm
Привет, Гость.
Предлагаем пройти революционный курс по гитаре.
Подарок от PrimaNota.Ru, забирай!