PrimaNota.ru - самый крупный в мире бесплатный архив песенных текстов, аккордов, табулатур и нот


Кукрыниксы - Ночуя над головой - аккорды и текст, видео

Регистрация Запомнить меня
Войти через:  Facebook Google Twitter Vk Yandex Mail.ru

Кукрыниксы - Ночуя над головой - аккорды и текст, видео

Печатать
Просмотров: 626
Ночуя над головой
Кукрыниксы
   Вступление:  (Live Version 1999г)

-------------------------------------------------------  
-------------------------------------------------------   
-------------------4---4-------------------------------   
------4---4------4---4---4-----5---5-------7-------5---   
----4---4---4--2-------------5---5---5---7---7---5---5-   
--2------------------------3-----------5-------3-------  

   Вступление:  (студийное 2002)

-------------------------------------------------------  
-------------------------------------------------------   
-------------------------------------------------------   
------0-------0-------0--------------------------------   
----4---4---4---4---4---4---4---4----------------------   
--2-------2-------2-------5---4------------------------ 




  F#  B      G          A5      G 
Ночуя над головой, звезда, снова и снова
  F#   B           G        A5       G 
Хотела стать молодой в моих глазах, ей знакомых
  F#    B          G      A5       G 
О ней я стал говорить наверно неверно
 F#     B           G       D5    A5   
И в комнате стало моей жарко мгновенно.

Припев:
G     A5         D5              F9#           
Ты разогрела для меня в сердцах такие звезды,
G     A5        D5             F9#   
Что потушить нельзя, бессильны даже слезы
G          A5       D5             F9#
Так сделай так звезда, чтоб все не так серьезно
G         A5        B
Чтоб все остыли от меня.

Играя сам над собой, втащил в игру эту многих
Нес свет над своей головой, мечтая греть одиноких
Я делал каждый свой шаг наверно неверно
Не мог я быстро устать, с чегож мне так скверно?

Ты разогрела для меня в сердцах такие звезды,
Что потушить нельзя, бессильны даже слезы
Так сделай так звезда, чтоб все не так серьезно
Чтоб все остыли от меня.

Соло:

--------------------------------------------------------------------   
--------------------------------------------------------------------   
--------------------------------------------------------------------   
--8h9~-8~-8h9~--------------------8h9~-8~-8h9~------------9-8~------   
---------------9~-7----------------------------9~--7-9-10-----------
--------------------10-9-7-7-6~-------------------------------------

2 times


Все в жизни моей позади, иду на туман опираясь
Никто на меня не глядит и я ни кого не желаю
Так было и будет всегда я знаю, наверно
Но что ж ты смотришь звезда, я был откровенным.

Ты разогрела для меня в сердцах такие звезды,
Что потушить нельзя, бессильны даже слезы
Так сделай так звезда, чтоб все не так серьезно
Чтоб все остыли от меня...

F#   B   G   A5   D5  F9#
----|----|----|----|---|-----
----|----|----|----|---|-----
----|--4-|----|----|-7-|-11--
-4--|--4-|--5-|--7-|-7-|-11--
-4--|--2-|--5-|--7-|-5-|-9---
-2--|----|--3-|--5-|---|-----

h-hammer
Добавлено: 06.03.2012
Другие материалы по этой песне:

Страница создана 24.02.2012
http://primanota.ru/kukryniksy/nochuya-nad-golovoi-chords.htm
Привет, Гость.
Предлагаем пройти революционный курс по гитаре.
Подарок от PrimaNota.Ru, забирай!