PrimaNota.ru - самый крупный в мире бесплатный архив песенных текстов, аккордов, табулатур и нот


Kt Tunstall - Lonely This Christmas - аккорды и текст, таба, видео

Регистрация Запомнить меня
Войти через:  Facebook Google Twitter Vk Yandex Mail.ru

Kt Tunstall - Lonely This Christmas - аккорды и текст, таба, видео

Печатать
Просмотров: 235
Lonely This Christmas
Kt Tunstall
Song: Lonely this Christmas
Artist: K T Tunstall
Album: Have yourself a very K T Christmas
Tabbed by: DJ
18th Nov 2012

K T Tunstall's cover version of Mud's 1974 Christmas hit

CAPO: 2nd fret (Sounds in key of A)

Chord names and fret positions are relative to the capo:
G   = 320003 or 355433
Em  = 022000
C   = x32010
D   = xx0232
Cm  = x35543

****************************************************************************

[Intro]
    G              Em             C               D
e|--------------|--------------|---------------|--------2-------|
B|--------0-----|--------0-----|--------1------|------3---3-----|
G|------0---0---|------0---0---|------0---0----|----2-------2---|
D|----0-------0-|----2-------2-|----2-------2--|--0-------------|
A|--------------|--------------|--3------------|----------------|
E|--3-----------|--0-----------|---------------|----------------|

    G             Em              C              D
e|--------------|--------------|---------------|--------2------|--2-----2------|
B|--------0-----|--------0-----|--------1------|------3---3----|----3-----3----|
G|------0---0---|------0---0---|------0---0----|----2-------2--|------2-----2--|
D|----0-------0-|----2-------2-|----2-------2--|--0------------|---------------|
A|--------------|--------------|--3------------|---------------|---------------|
E|--3-----------|--0-----------|---------------|---------------|---------------|


[Verse 1]
 G           Em       C                 D
Try to i - magine a house that's not a home,
G              Em       C              D
   Try to i - magine Christmas all a - lone,
             G                  Em           C                   D
That's were I'll be, since you left me, my tears could melt the snow,
         G           Em             C          D
What can I do with - out you?  Got no place to go!


[Chorus]
           G            Em             C          D
It'll be lonely this Christmas with - out you to hold,
           G            Em         C        D
It'll be lonely this Christmas, lonely and cold,
           G             Em           C          D
It'll be cold, so-----  cold, with - out you to hold,
      G
This Christmas!      C               G              D
 e|----------------|---------------|--------------|--------2-----|--------2-------|
 B|----------------|---------------|--------0-----|------3---3---|------3---3-----|
 G|------0---------|------0--------|------0---0---|----2-------2-|----2--------2--|
 D|----0-----------|----2----------|----0-------0-|--0-----------|--0-------------|
 A|-----------0-2--|--3-----3-2-0--|--------------|--------------|----------------|
 E|--3------3------|---------------|--3-----------|--------------|----------------|


[Verse 2]
 G                 Em        C                  D
Each time I re - member the day you went away,
G               Em       C              D
   I wouldn't listen to what you had to say,
          G             Em               C             D
I just breakdown, as I look around, the only things I see,
       G              Em           C               D
Are emptiness, and loneliness, an unlit Christmas tree!


[Chorus]
           G            Em             C          D
It'll be lonely this Christmas with - out you to hold,
           G            Em         C        D
It'll be lonely this Christmas, lonely and cold,
           G             Em           C          D
It'll be cold, so-----  cold, with - out you to hold,
      G
This Christmas!      C               G              D
 e|----------------|---------------|--------------|--------2-----|--------2-------|
 B|----------------|---------------|--------0-----|------3---3---|------3---3-----|
 G|------0---------|------0--------|------0---0---|----2-------2-|----2--------2--|
 D|----0-----------|----2----------|----0-------0-|--0-----------|--0-------------|
 A|-----------0-2--|--3-----3-2-0--|--------------|--------------|----------------|
 E|--3------3------|---------------|--3-----------|--------------|----------------|


[Verse 3]
G                   Em         C                   D
   Do you remember last year?     you and I were here,
     G                   Em         C                  D
We never thought there'd be an end, I remember looking at you then,
   G                  Em              C                D
Thinking... Christ - mas... was made for you, and for me,
           G                  Em                C              D
'Cause, darling, this is the time of year you really, really need...
             G     Em       C                    D
...You need love--------,      when it means so very,
      G
Very much!          Em              C              D
  e|--3-----3-----|--0-----0-----|--0----0------|--2-----2-----|--2-----------|
  B|----0-----0---|----0-----0---|----1-----1---|----3-----3---|----3---------|
  G|------0-----0-|------0-----0-|------0-----0-|------2-----2-|------2-------|
  D|--------------|--------------|--------------|--------------|--------------|
  A|--------------|--------------|--------------|--------------|--------------|
  E|--------------|--------------|--------------|--------------|--------------|


[Chorus]
           G           Em              C          D
It'll be lonely this Christmas with - out you to hold,
           G           Em          C        D
It'll be lonely this Christmas, lonely and cold,
           G             Em           C          D
It'll be cold, so-----  cold, with - out you to hold,

[Coda]
        G
This Christmas!             C    Cm           G
   e|-------------------|---0-----3------|----3----||
   B|-------------------|---1-----4------|----3----||
   G|--------0----------|---0-----5------|----4----||
   D|------0------------|---2-----5------|----5----||
   A|-------------0--2--|---3-----3------|----5----||
   E|--3--------3-------|----------------|----3----||
Добавлено: 11.06.2016
Другие материалы по этой песне:
  • Аккорды и текст

Страница создана 05.07.2013
http://primanota.ru/kt-tunstall/lonely-this-christmas-chords.htm
Привет, Гость.
Предлагаем пройти революционный курс по гитаре.
Подарок от PrimaNota.Ru, забирай!