PrimaNota.ru - самый крупный в мире бесплатный архив песенных текстов, аккордов, табулатур и нот


Kreator - Warcurse - текст песни, таба, видео

Регистрация Запомнить меня
Войти через:  Facebook Google Twitter Vk Yandex Mail.ru

Kreator - Warcurse - текст песни, таба, видео

Печатать
Просмотров: 159
Title: Warcurse
Artist: Kreator
Album: Hordes of Chaos
Words: Kreator
Copyright: Steamhammer / SPV
Tabber: MetallicGuitarAlex20
Tempo = 194
Mille Petrozza - left guitar

Legend
L - tied note
x - dead note
h - hammer on/pull off
b - bend
s - slide
~ - vibrato
g - ghost note
> - accentuated note
t - trill
M - palm mute
. - staccato
P - popping (bass)
S - slapping (bass)
+ - tapping
W - wide vibrato
< - fade in
w - whammy bar
= - tremolo picking
v - brush up
^ - brush down
V - pick stroke up
n - pick stroke down


D |-------------------|-------------------|-------------------|
A |-------------------|-------------------|-------------------|
F |-------------------|-------------------|-------------------|
C |-------------------|-------------------|-------------------|
G |-------------------|-------------------|-------------------|
D |-------------------|-------------------|-------------------|


----------------------------|-------------------|-------------------|
----------------------------|-------------------|-------------------|
----------------------------|-------------------|-------------------|
----------------------------|-------------------|-------------------|
----------------------------|-------------------|-------------------|
----------------------------|-------------------|-------------------|


-------------------|----------------------------------------|
-------------------|----------------------------------------|
-------------------|----------------------------------------|
-------------------|--------------------10-9----------------|
-------------------|----------------------------------------|
-------------------|--3L----------3-------------------------|


----------------------------------------------------------------|
----------------------------------------------------------------|
----------------------------------------------------------------|
--10----------------------------------10----9-------------------|
----------------------------------------------------------------|
--------0M----0M-0M-0M----0M-0M-0M------------------------------|


----------------------------------------------------------------|
----------------------------------------------------------------|
----------------------------------------------------------------|
--10----------------------------------10----9-------------------|
----------------------------------------------------------------|
--------0M----0M-0M-0M----0M-0M-0M------------------------------|


----------------------------------------|
----------------------------------------|
----------------------------------------|
--10----10-9--10----10-9----------------|
----------------------------------------|
-----0M----------0M---------------------|


----------------------------------------------------------------|
----------------------------------------------------------------|
----------------------------------------------------------------|
--10----------------------------------10----9-------------------|
----------------------------------------------------------------|
--------0M----0M-0M-0M----0M-0M-0M------------------------------|


----------------------------------------------------------------|
----------------------------------------------------------------|
----------------------------------------------------------------|
--10----------------------------------10----9-------------------|
----------------------------------------------------------------|
--------0M----0M-0M-0M----0M-0M-0M------------------------------|


----------------------------------------------------------------|
----------------------------------------------------------------|
----------------------------------------------------------------|
--10----------------------------------10----9-------------------|
----------------------------------------------------------------|
--------0M----0M-0M-0M----0M-0M-0M------------------------------|


----------------------------------------|-------------------------------|
----------------------------------------|-------------------------------|
----------------------------------------|-------------------------------|
--10----10-9--10----10-9----------------|--10----10-9--10---------------|
----------------------------------------|-------------------------------|
-----0M----------0M---------------------|-----0M----------0M------------|


----------------------------------------------------------------|
----------------------------------------------------------------|
----------------------------------------------------------------|
----------------------------------------------------------------|
--10----9-----10----------------------5-------------------------|
--8-----7-----8-----0M-0M-0M-0M-0M-0--3-----0M-0M---------------|


----------------------------------------------------------------|
----------------------------------------------------------------|
----------------------------------------------------------------|
----------------------------------------------------------------|
--------------3-----2-------------------------------------------|
--0M-0M-0M-0M-1-----0-----0M-0M-0M-0M-0M-0M-0M-0M---------------|


----------------------------------------------------------------|
----------------------------------------------------------------|
----------------------------------------------------------------|
--------------------------------------8-------------------------|
--7-----9-----10----------------------6-------------------------|
--5-----7-----8-----0M-0M-0M-0M-0M-0M-------0M-0M---------------|


----------------------------------------------------------------|
----------------------------------------------------------------|
----------------------------------------------------------------|
--------------7-----5-----4-------------------------------------|
--------------5-----3-----2-------------------------------------|
--0M-0M-0M-0M-------------------0M-0M-0M-0M-0M-0M---------------|


----------------------------------------------------------------|
----------------------------------------------------------------|
----------------------------------------------------------------|
----------------------------------------------------------------|
--10----9-----10----------------------5-------------------------|
--8-----7-----8-----0M-0M-0M-0M-0M-0--3-----0M-0M---------------|


----------------------------------------------------------------|
----------------------------------------------------------------|
----------------------------------------------------------------|
----------------------------------------------------------------|
--------------3-----2-------------------------------------------|
--0M-0M-0M-0M-1-----0-----0M-0M-0M-0M-0M-0M-0M-0M---------------|


----------------------------------------------------------------|
----------------------------------------------------------------|
----------------------------------------------------------------|
----------------------------------------------------------------|
--7-----9-----10----------7M-7M-7M-7M-6M-6M-6M-6M---------------|
--5-----7-----8-------------------------------------------------|


----------------------------------------------------------------|
----------------------------------------------------------------|
----------------------------------------------------------------|
----------------------------------------------------------------|
--8-----7-----8-----------5M-5M-5M-5M-4M-4M-4M-4M---------------|
--6-----5-----6-------------------------------------------------|


----------------------------------------|
----------------------------------------|
----------------------------------------|
----------------------------------------|
--------------------7-------------------|
--3M-2M-3h-0--0M-0M----0M---------------|


----------------------------------------------------------------|
----------------------------------------------------------------|
----------------------------------------------------------------|
----------------------------------------------------------------|
--7-----------6-------------------------------------------------|
--------0M----------0M-0M-0M-0M-0M-0M-0M-0M-0M-0M---------------|


----------------------------------------------------------------|
----------------------------------------------------------------|
----------------------------------------------------------------|
----------------------------------------------------------------|
----------------------------------------------------------------|
--0M-0M-0M-0M-3M-3M-3M-3M-3M-3M-3M-3M-3M-3M-2M-2M---------------|


----------------------------------------------------------------|
----------------------------------------------------------------|
----------------------------------------------------------------|
----------------------------------------------------------------|
--------------------------------------3-----2-------------------|
--3M-3M-5M-5M-5M-5M-5M-5M-5M-5M-5M-5M---------------------------|


----------------------------------------|
----------------------------------------|
----------------------------------------|
----------------------------------------|
--------------7-----7-------------------|
--3h-0--0M-0M----0M----0M---------------|


----------------------------------------------------------------|
----------------------------------------------------------------|
----------------------------------------------------------------|
----------------------------------------------------------------|
--6-------------------------------------------------------------|
--------0M-0M-0M-0M-0M-0M-0M-0M-0M-0M-0M-0M-0M-0M---------------|


----------------------------------------------------------------|
----------------------------------------------------------------|
----------------------------------------------------------------|
--4-----------------------4-------------------------------------|
--2-----2M-2M-2M-2M-2M-2M-2-----2M-2M-2M-2M-2M-2M---------------|
----------------------------------------------------------------|


----------------------------------------------------------------|
----------------------------------------------------------------|
----------------------------------------------------------------|
--5-----------------------5-------------------------------------|
--3-----3M-3M-3M-3M-3M-3M-3-----3M-3M-3M-3M-3M-3M---------------|
----------------------------------------------------------------|


-------------------|----------------------------|-------------------|
-------------------|----------------------------|-------------------|
--7L---------------|--7--5--4--7L---------------|--7----------------|
-------------------|----------------------------|-------------------|
--5L---------------|--5--3--2--5L---------------|--5----------------|
-------------------|----------------------------|-------------------|


----------------------------|----------------------------|-------------------|
----------------------------|----------------------------|-------------------|
--10-12-7L------------------|--7-----5--4----------------|--7L---------------|
----------------------------|----------------------------|-------------------|
--8--10-5L------------------|--5-----3--2----------------|--5L---------------|
----------------------------|----------------------------|-------------------|


-------------------------------|
-------------------------------|
--7L----7L-7--10-12------------|
-------------------------------|
--5L----5L-5--8--10------------|
-------------------------------|


----------------------------------------------------------------|
----------------------------------------------------------------|
----------------------------------------------------------------|
----------------------------------------------------------------|
--7-----------------7-----9-----------------9-------------------|
--------0M-0M-0M----------------0M-0M-0M------------------------|


----------------------------------------------------------------|
----------------------------------------------------------------|
----------------------------------------------------------------|
--------------------7-----9-------------------------------------|
--10------------------------------------------------------------|
--------0M-0M-0M----------------0M-0M-0M----0M------------------|


----------------------------------------------------------------|
----------------------------------------------------------------|
----------------------------------------------------------------|
----------------------------------------------------------------|
--10----------------9-----------------10------------------------|
--8-----8M-8M-8M----------8M-8M-8M----------8M-8M---------------|


----------------------------------------------------------------|
----------------------------------------------------------------|
----------------------------------------------------------------|
----------------------------------------------------------------|
--------9-----------------7-----------6-------------------------|
--8M----------8M-8M-8M----8-----8M----8-------------------------|


----------------------------------------------------------------|
----------------------------------------------------------------|
----------------------------------------------------------------|
----------------------------------------------------------------|
--7-----------------7-----9-----------------9-------------------|
--------0M-0M-0M----------------0M-0M-0M------------------------|


----------------------------------------------------------------|
----------------------------------------------------------------|
----------------------------------------------------------------|
--------------------7-----9-------------------------------------|
--10------------------------------------------------------------|
--------0M-0M-0M----------------0M-0M-0M----0M------------------|


----------------------------------------------------------------|
----------------------------------------------------------------|
----------------------------------------------------------------|
--10-10-10-10-10-10-9--9--9--9--9--9--7--7--7--7----------------|
----------------------------------------------------------------|
----------------------------------------------------------------|


----------------------------------------------------------------|
----------------------------------------------------------------|
----------------------------------------------------------------|
--7--7--------------------7--7--7--7--9--9--9--9----------------|
--------10-10-10-10-10-10---------------------------------------|
----------------------------------------------------------------|


----------------------------------------------------------------|
----------------------------------------------------------------|
----------------------------------------------------------------|
----------------------------------------------------------------|
--7-----------------7-----9-----------------9-------------------|
--------0M-0M-0M----------------0M-0M-0M------------------------|


----------------------------------------------------------------|
----------------------------------------------------------------|
----------------------------------------------------------------|
--------------------7-----9-------------------------------------|
--10------------------------------------------------------------|
--------0M-0M-0M----------------0M-0M-0M----0M------------------|


----------------------------------------------------------------|
----------------------------------------------------------------|
----------------------------------------------------------------|
----------------------------------------------------------------|
--10----------------9-----------------10------------------------|
--8-----8M-8M-8M----------8M-8M-8M----------8M-8M---------------|


----------------------------------------------------------------|
----------------------------------------------------------------|
----------------------------------------------------------------|
----------------------------------------------------------------|
--------9-----------------7-----------6-------------------------|
--8M----------8M-8M-8M----8-----8M----8-------------------------|


----------------------------------------------------------------|
----------------------------------------------------------------|
----------------------------------------------------------------|
----------------------------------------------------------------|
--7-----------------7-----9-----------------9-------------------|
--------0M-0M-0M----------------0M-0M-0M------------------------|


----------------------------------------------------------------|
----------------------------------------------------------------|
----------------------------------------------------------------|
--------------------7-----9-------------------------------------|
--10------------------------------------------------------------|
--------0M-0M-0M----------------0M-0M-0M----0M------------------|


----------------------------------------|----------------------|
----------------------------------------|----------------------|
----------------------------------------|----------------------|
--7-------------------------------------|----------------------|
--5-------------------------------------|----------------------|
----------------------------------------|----------------------|


----------------------------------------------------------------|
----------------------------------------------------------------|
----------------------------------------------------------------|
----------------------------------------------------------------|
--10----9-----10----------------------5-------------------------|
--8-----7-----8-----0M-0M-0M-0M-0M-0--3-----0M-0M---------------|


----------------------------------------------------------------|
----------------------------------------------------------------|
----------------------------------------------------------------|
----------------------------------------------------------------|
--------------3-----2-------------------------------------------|
--0M-0M-0M-0M-1-----0-----0M-0M-0M-0M-0M-0M-0M-0M---------------|


----------------------------------------------------------------|
----------------------------------------------------------------|
----------------------------------------------------------------|
--------------------------------------8-------------------------|
--7-----9-----10----------------------6-------------------------|
--5-----7-----8-----0M-0M-0M-0M-0M-0M-------0M-0M---------------|


----------------------------------------------------------------|
----------------------------------------------------------------|
----------------------------------------------------------------|
--------------7-----5-----4-------------------------------------|
--------------5-----3-----2-------------------------------------|
--0M-0M-0M-0M-------------------0M-0M-0M-0M-0M-0M---------------|


----------------------------------------------------------------|
----------------------------------------------------------------|
----------------------------------------------------------------|
----------------------------------------------------------------|
--10----9-----10----------------------5-------------------------|
--8-----7-----8-----0M-0M-0M-0M-0M-0--3-----0M-0M---------------|


----------------------------------------------------------------|
----------------------------------------------------------------|
----------------------------------------------------------------|
----------------------------------------------------------------|
--------------3-----2-------------------------------------------|
--0M-0M-0M-0M-1-----0-----0M-0M-0M-0M-0M-0M-0M-0M---------------|


----------------------------------------|----------------------------|
----------------------------------------|----------------------------|
----------------------------------------|----------------------------|
----------------------------------------|----------------------------|
--7--9--10----10M---10M-----------------|--10M10M10M10M--------------|
--5--7--8-----8M----8M------------------|--8M-8M-8M-8M---------------|


----------------------------------------|
----------------------------------------|
----------------------------------------|
----------------------------------------|
--------------------7-------------------|
--3M-2M-3h-0--0M-0M----0M---------------|


----------------------------------------------------------------|
----------------------------------------------------------------|
----------------------------------------------------------------|
----------------------------------------------------------------|
--7-----------6-------------------------------------------------|
--------0M----------0M-0M-0M-0M-0M-0M-0M-0M-0M-0M---------------|


----------------------------------------------------------------|
----------------------------------------------------------------|
----------------------------------------------------------------|
----------------------------------------------------------------|
----------------------------------------------------------------|
--0M-0M-0M-0M-3M-3M-3M-3M-3M-3M-3M-3M-3M-3M-2M-2M---------------|


----------------------------------------------------------------|
----------------------------------------------------------------|
----------------------------------------------------------------|
----------------------------------------------------------------|
--------------------------------------3-----2-------------------|
--3M-3M-5M-5M-5M-5M-5M-5M-5M-5M-5M-5M---------------------------|


----------------------------------------|
----------------------------------------|
----------------------------------------|
----------------------------------------|
--------------7-----7-------------------|
--3h-0--0M-0M----0M----0M---------------|


----------------------------------------------------------------|
----------------------------------------------------------------|
----------------------------------------------------------------|
----------------------------------------------------------------|
--6-------------------------------------------------------------|
--------0M-0M-0M-0M-0M-0M-0M-0M-0M-0M-0M-0M-0M-0M---------------|


----------------------------------------------------------------|
----------------------------------------------------------------|
----------------------------------------------------------------|
--4-----------------------4-------------------------------------|
--2-----2M-2M-2M-2M-2M-2M-2-----2M-2M-2M-2M-2M-2M---------------|
----------------------------------------------------------------|


----------------------------------------------------------------|
----------------------------------------------------------------|
----------------------------------------------------------------|
--5-----------------------5-------------------------------------|
--3-----3M-3M-3M-3M-3M-3M-3-----3M-3M-3M-3M-3M-3M---------------|
----------------------------------------------------------------|


-------------------|----------------------------|-------------------|
-------------------|----------------------------|-------------------|
--7L---------------|--7--5--4--7L---------------|--7----------------|
-------------------|----------------------------|-------------------|
--5L---------------|--5--3--2--5L---------------|--5----------------|
-------------------|----------------------------|-------------------|


----------------------------|----------------------------|-------------------|
----------------------------|----------------------------|-------------------|
--10-12-7L------------------|--7-----5--4----------------|--7L---------------|
----------------------------|----------------------------|-------------------|
--8--10-5L------------------|--5-----3--2----------------|--5L---------------|
----------------------------|----------------------------|-------------------|


-------------------------------|
-------------------------------|
--7L----7L-7--10-12------------|
-------------------------------|
--5L----5L-5--8--10------------|
-------------------------------|


----------------------------------------------------------------|
----------------------------------------------------------------|
----------------------------------------------------------------|
----------------------------------------------------------------|
--7-----------------7-----9-----------------9-------------------|
--------0M-0M-0M----------------0M-0M-0M------------------------|


----------------------------------------------------------------|
----------------------------------------------------------------|
----------------------------------------------------------------|
--------------------7-----9-------------------------------------|
--10------------------------------------------------------------|
--------0M-0M-0M----------------0M-0M-0M----0M------------------|


----------------------------------------------------------------|
----------------------------------------------------------------|
----------------------------------------------------------------|
----------------------------------------------------------------|
--10----------------9-----------------10------------------------|
--8-----8M-8M-8M----------8M-8M-8M----------8M-8M---------------|


----------------------------------------------------------------|
----------------------------------------------------------------|
----------------------------------------------------------------|
----------------------------------------------------------------|
--------9-----------------7-----------6-------------------------|
--8M----------8M-8M-8M----8-----8M----8-------------------------|


----------------------------------------------------------------|
----------------------------------------------------------------|
----------------------------------------------------------------|
----------------------------------------------------------------|
--7-----------------7-----9-----------------9-------------------|
--------0M-0M-0M----------------0M-0M-0M------------------------|


----------------------------------------------------------------|
----------------------------------------------------------------|
----------------------------------------------------------------|
--------------------7-----9-------------------------------------|
--10------------------------------------------------------------|
--------0M-0M-0M----------------0M-0M-0M----0M------------------|


----------------------------------------------------------------|
----------------------------------------------------------------|
----------------------------------------------------------------|
--10-10-10-10-10-10-9--9--9--9--9--9--7--7--7--7----------------|
----------------------------------------------------------------|
----------------------------------------------------------------|


----------------------------------------------------------------|
----------------------------------------------------------------|
----------------------------------------------------------------|
--7--7--------------------7--7--7--7--9--9--9--9----------------|
--------10-10-10-10-10-10---------------------------------------|
----------------------------------------------------------------|


----------------------------------------------------------------|
----------------------------------------------------------------|
----------------------------------------------------------------|
----------------------------------------------------------------|
--7-----------------7-----9-----------------9-------------------|
--------0M-0M-0M----------------0M-0M-0M------------------------|


----------------------------------------------------------------|
----------------------------------------------------------------|
----------------------------------------------------------------|
--------------------7-----9-------------------------------------|
--10------------------------------------------------------------|
--------0M-0M-0M----------------0M-0M-0M----0M------------------|


----------------------------------------------------------------|
----------------------------------------------------------------|
----------------------------------------------------------------|
----------------------------------------------------------------|
--10----------------9-----------------10------------------------|
--8-----8M-8M-8M----------8M-8M-8M----------8M-8M---------------|


----------------------------------------------------------------|
----------------------------------------------------------------|
----------------------------------------------------------------|
----------------------------------------------------------------|
--------9-----------------7-----------6-------------------------|
--8M----------8M-8M-8M----8-----8M----8-------------------------|


----------------------------------------------------------------|
----------------------------------------------------------------|
----------------------------------------------------------------|
----------------------------------------------------------------|
--7-----------------7-----9-----------------9-------------------|
--------0M-0M-0M----------------0M-0M-0M------------------------|


----------------------------------------------------------------|
----------------------------------------------------------------|
----------------------------------------------------------------|
--------------------7-----9-------------------------------------|
--10------------------------------------------------------------|
--------0M-0M-0M----------------0M-0M-0M----0M------------------|


----------------------------------------|----------------------------||
----------------------------------------|----------------------------||
----------------------------------------|----------------------------||
--7-------------------------------------|----------------------------||
--5-------------------------------------|----------------------------||
----------------------------------------|----------------------------||


---------------------------------------------------------------|
---------------------------------------------------------------|
o--------------------------------------------------------------|
o--------------------------------------------------------------|
-------------------2-------------------------------------------|
-0M----2M----3M----------3M----2M----0M----0M-0M---------------|


----------------------------------------------------------------|
----------------------------------------------------------------|
----------------------------------------------------------------|
----------------------------------------------------------------|
--------------------------------------------2-------------------|
--0M----0M----0M----0M----0M----2M----3M------------------------|


----------------------------------------------------------------|
----------------------------------------------------------------|
----------------------------------------------------------------|
----------------------------------------------------------------|
----------------------------------------------------------------|
--3M----2M----1M----1M-1M-1M----1M----1M----1M------------------|


----------------------------------------------------------------|
----------------------------------------------------------------|
----------------------------------------------------------------|
----------------------------------------------------------------|
--------------------2-------------------------------------------|
--0M----2M----3M----------3M----2M----0M----0M-0M---------------|


----------------------------------------------------------------|
----------------------------------------------------------------|
----------------------------------------------------------------|
----------------------------------------------------------------|
--------------------------------------------2-------------------|
--0M----0M----0M----0M----0M----2M----3M------------------------|


---------------------------------------||
---------------------------------------||
--------------------------------------o||
--------7--------5--------------------o||
--------5--------3---------------------||
--3M-2M----0M-0M----0M-0M--------------||


----------------------------------------|
----------------------------------------|
----------------------------------------|
----------------------------------------|
--7--------8--------7-------------------|
-----0M-0M----0M-0M----0M---------------|


----------------------------------------|
----------------------------------------|
----------------------------------------|
----------------------------------------|
-----10-8--7--8--------7----------------|
--0M-------------0M-0M------------------|


----------------------------------------|
----------------------------------------|
----------------------------------------|
----------------------------------------|
--------5-------------------------------|
--0M-0M----0M-0M-0M-0M-0M---------------|


----------------------------------------|
----------------------------------------|
----------------------------------------|
----------------------------------------|
--7--------8--------7-------------------|
-----0M-0M----0M-0M----0M---------------|


----------------------------------------|
----------------------------------------|
----------------------------------------|
----------------------------------------|
-----10-8--7--8-------------------------|
--0M-------------0M-0M-0M---------------|


----------------------------------------|
----------------------------------------|
----------------------------------------|
----------------------------------------|
-----------------8-----5----------------|
--0M-0M-0M-0M-0M-6-----3----------------|


----------------------------------------|
----------------------------------------|
----------------------------------------|
----------------------------------------|
--7--------8--------7-------------------|
-----0M-0M----0M-0M----0M---------------|


----------------------------------------|
----------------------------------------|
----------------------------------------|
----------------------------------------|
-----10-8--7--8--------7----------------|
--0M-------------0M-0M------------------|


----------------------------------------|
----------------------------------------|
----------------------------------------|
----------------------------------------|
--------5-------------------------------|
--0M-0M----0M-0M-0M-0M-0M---------------|


----------------------------------------|
----------------------------------------|
----------------------------------------|
----------------------------------------|
--5--------7--------8-------------------|
--6--0M-0M----0M-0M----0M---------------|


----------------------------------------|
----------------------------------------|
----------------------------------------|
----------------------------------------|
-----------5--7-------------------------|
--0M-5M-7M-------0M-0M-0M---------------|


----------------------------------------|
----------------------------------------|
----------------------------------------|
----------------------------------------|
-----------------4M-2M-4M---------------|
--0M-0M-0M-0M-0M-2M-0M-2M---------------|


----------------------------------------|
----------------------------------------|
----------------------------------------|
----------------------------------------|
--5L-5-----5M-4M-5M-7L------------------|
--3L-3-----3M-2M-3M-5L------------------|


----------------------------------------|
----------------------------------------|
----------------------------------------|
----------------------------------------|
--7--7M-5M-4M-5-------------------------|
--5--5M-3M-2M-3h-0--0M-0M---------------|


----------------------------------------|
----------------------------------------|
----------------------------------------|
----------------------------------------|
-----------------4M-2M-4M---------------|
--0M-0M-0M-0M-0M-2M-0M-2M---------------|


----------------------------------------|
----------------------------------------|
----------------------------------------|
----------------------------------------|
--5L-5-----5M-4M-5M-7L------------------|
--3L-3-----3M-2M-3M-5L------------------|


----------------------------------------|
----------------------------------------|
----------------------------------------|
----------------------------------------|
--7--7M-5M-4M-2-------------------------|
--5--5M-3M-2M-0--0M-0M-0M---------------|


----------------------------------------|
----------------------------------------|
----------------------------------------|
----------------------------------------|
-----------------4M-2M-4M---------------|
--0M-0M-0M-0M-0M-2M-0M-2M---------------|


----------------------------------------|
----------------------------------------|
----------------------------------------|
----------------------------------------|
--5L-5-----5M-4M-5M-7L------------------|
--3L-3-----3M-2M-3M-5L------------------|


----------------------------------------|
----------------------------------------|
----------------------------------------|
----------------------------------------|
--7--7M-5M-4M-10L---10-10M--------------|
--5--5M-3M-2M-8L----8--8M---------------|


----------------------------------------|
----------------------------------------|
----------------------------------------|
----------------------------------------|
--9M-7M-9L----9--4M-2M-4M---------------|
--7M-5M-7L----7--2M-0M-2M---------------|


----------------------------------------|----------------------|
----------------------------------------|----------------------|
----------------------------------------|----------------------|
----------------------------------------|----------------------|
--5L----5--5M-4M-5M-7L------------------|--7--7M-5M-4M---------|
--3L----3--3M-2M-3M-5L------------------|--5--5M-3M-2M---------|


----------------------------------------------------------------|
----------------------------------------------------------------|
----------------------------------------------------------------|
----------------------------------------------------------------|
--------------------2M------------------------------------------|
--0M----2M----3M----------3M----2M----0M----0M-0M---------------|


----------------------------------------------------------------|
----------------------------------------------------------------|
----------------------------------------------------------------|
----------------------------------------------------------------|
--------------------------------------------2M------------------|
--0M----0M----0M----0M----0M----2M----3M------------------------|


----------------------------------------------------------------|
----------------------------------------------------------------|
----------------------------------------------------------------|
----------------------------------------------------------------|
----------------------------------------------------------------|
--3M----2M----1M----1M-1M-1M----1M----1M----1M------------------|


----------------------------------------------------------------|
----------------------------------------------------------------|
----------------------------------------------------------------|
----------------------------------------------------------------|
--------------------2M------------------------------------------|
--0M----2M----3M----------3M----2M----0M----0M-0M---------------|


----------------------------------------------------------------|
----------------------------------------------------------------|
----------------------------------------------------------------|
----------------------------------------------------------------|
--------------------------------------------2M------------------|
--0M----0M----0M----0M----0M----2M----3M------------------------|


----------------------------------------|
----------------------------------------|
----------------------------------------|
--------7--------5----------------------|
--------5--------3----------------------|
--3M-2M----0M-0M----0M-0M---------------|


----------------------------------------------------------------|
----------------------------------------------------------------|
----------------------------------------------------------------|
----------------------------------------------------------------|
--------------------2M------------------------------------------|
--0M----2M----3M----------3M----2M----0M----0M-0M---------------|


----------------------------------------------------------------|
----------------------------------------------------------------|
----------------------------------------------------------------|
----------------------------------------------------------------|
--------------------------------------------2M------------------|
--0M----0M----0M----0M----0M----2M----3M------------------------|


----------------------------------------------------------------|
----------------------------------------------------------------|
----------------------------------------------------------------|
----------------------------------------------------------------|
----------------------------------------------------------------|
--3M----2M----1M----1M-1M-1M----1M----1M----1M------------------|


----------------------------------------------------------------|
----------------------------------------------------------------|
----------------------------------------------------------------|
----------------------------------------------------------------|
--------------------2M------------------------------------------|
--0M----2M----3M----------3M----2M----0M----0M-0M---------------|


----------------------------------------------------------------|
----------------------------------------------------------------|
----------------------------------------------------------------|
----------------------------------------------------------------|
--------------------------------------------2M------------------|
--0M----0M----0M----0M----0M----2M----3M------------------------|


----------------------------------------|
----------------------------------------|
----------------------------------------|
--------7--------5----------------------|
--------5--------3----------------------|
--3M-2M----0M-0M----0M-0M---------------|


----------------------------------------|
----------------------------------------|
----------------------------------------|
----------------------------------------|
--5L-5-----5M-4M-5M-7L------------------|
--3L-3-----3M-2M-3M-5L------------------|


----------------------------------------|
----------------------------------------|
----------------------------------------|
----------------------------------------|
--7--7M-5M-4M-5-------------------------|
--5--5M-3M-2M-3h-0--0M-0M---------------|


----------------------------------------|
----------------------------------------|
----------------------------------------|
----------------------------------------|
-----------------4M-2M-4M---------------|
--0M-0M-0M-0M-0M-2M-0M-2M---------------|


----------------------------------------|
----------------------------------------|
----------------------------------------|
----------------------------------------|
--5L-5-----5M-4M-5M-7L------------------|
--3L-3-----3M-2M-3M-5L------------------|


----------------------------------------|
----------------------------------------|
----------------------------------------|
----------------------------------------|
--7--7M-5M-4M-2-------------------------|
--5--5M-3M-2M-0--0M-0M-0M---------------|


----------------------------------------|
----------------------------------------|
----------------------------------------|
----------------------------------------|
-----------------4M-2M-4M---------------|
--0M-0M-0M-0M-0M-2M-0M-2M---------------|


----------------------------------------|
----------------------------------------|
----------------------------------------|
----------------------------------------|
--5L-5-----5M-4M-5M-7L------------------|
--3L-3-----3M-2M-3M-5L------------------|


----------------------------------------|
----------------------------------------|
----------------------------------------|
----------------------------------------|
--7--7M-5M-4M-10L---10-10M--------------|
--5--5M-3M-2M-8L----8--8M---------------|


----------------------------------------|
----------------------------------------|
----------------------------------------|
----------------------------------------|
--9M-7M-9L----9--4M-2M-4M---------------|
--7M-5M-7L----7--2M-0M-2M---------------|


----------------------------------------|----------------------|
----------------------------------------|----------------------|
----------------------------------------|----------------------|
----------------------------------------|----------------------|
--5L----5--5M-4M-5M-7L------------------|--7--7M-5M-4M---------|
--3L----3--3M-2M-3M-5L------------------|--5--5M-3M-2L---------|


----------------------------------------|
----------------------------------------|
--9M-9M-9M-9L-9-----9M-9M---------------|
----------------------------------------|
--7M-7M-7M-7L-7-----7M-7M---------------|
--2L-2L-2L-2L-2L----2L-2L---------------|


----------------------------------------|----------------------------|
----------------------------------------|----------------------------|
--9M-9L----9--9M-9M-9M-9L---------------|--9--9--7--9----------------|
----------------------------------------|----------------------------|
--7M-7L----7--7M-7M-7M-7L---------------|--7--7--5--7----------------|
--2L-2L----2L-2L-2L-2L-2L---------------|--2L-2L-2L-2L---------------|


----------------------------------------|
----------------------------------------|
--10M10M10M10L10----10M10M--------------|
----------------------------------------|
--8M-8M-8M-8L-8-----8M-8M---------------|
--2L-2L-2L-2L-2L----2L-2L---------------|


----------------------------------------|----------------------------|
----------------------------------------|----------------------------|
--10M10L---10-10M10M10M10L--------------|--10-10-9--12---------------|
----------------------------------------|----------------------------|
--8M-8L----8--8M-8M-8M-8L---------------|--8--8--7--10---------------|
--2L-2L----2L-2L-2L-2L-2L---------------|--2L-2L-2L-2L---------------|


----------------------------------------|
----------------------------------------|
--14M14M14M14L14----14M14M--------------|
----------------------------------------|
--12M12M12M12L12----12M12M--------------|
--2L-2L-2L-2L-2L----2L-2L---------------|


----------------------------------------|----------------------------|
----------------------------------------|----------------------------|
--14M14L---14-14M14M14M14L--------------|--14-14-12-11---------------|
----------------------------------------|----------------------------|
--12M12L---12-12M12M12M12L--------------|--12-12-10-9----------------|
--2L-2L----2L-2L-2L-2L-2L---------------|--2L-2L-2L-2L---------------|


----------------------------------------|
----------------------------------------|
--12M12M12M12L12----12M12M--------------|
----------------------------------------|
--10M10M10M10L10----10M10M--------------|
--2L-2L-2L-2L-2L----2L-2L---------------|


----------------------------------------|
----------------------------------------|
--12M12L---12-12M12M12M12L--------------|
----------------------------------------|
--10M10L---10-10M10M10M10L--------------|
--2L-2L----2L-2L-2L-2L-2L---------------|


----------------------------------------||------------------|
----------------------------------------||------------------|
--12----9L----9--11L---11---------------||o9L---------------|
----------------------------------------||o-----------------|
--10----7L----7--9L----9----------------||-7L---------------|
--2L----2L----2L-2L----2L---------------||-2L---------------|


-------------------|----------------------------|-------------------|
-------------------|----------------------------|-------------------|
--9L---------------|--9--9--7--9----------------|--10L--------------|
-------------------|----------------------------|-------------------|
--7L---------------|--7--7--5--7----------------|--8L---------------|
--2L---------------|--2L-2L-2L-2L---------------|--2L---------------|


-------------------|----------------------------|-------------------|
-------------------|----------------------------|-------------------|
--10L--------------|--10-10-9--12---------------|--14L--------------|
-------------------|----------------------------|-------------------|
--8L---------------|--8--8--7--10---------------|--12L--------------|
--2L---------------|--2L-2L-2L-2L---------------|--2L---------------|


-------------------|----------------------------|----------------------------|
-------------------|----------------------------|----------------------------|
--14L--------------|--14-14-16-17---------------|--16L---16-14L--------------|
-------------------|----------------------------|----------------------------|
--12L--------------|--12-12-14-15---------------|--14L---14-12L--------------|
--2L---------------|--2L-2L-2L-2L---------------|--2L----2L-2L---------------|


----------------------|---------------------------------------||
----------------------|---------------------------------------||
--14-12L--------------|--12----9L----9--11L---11-------------o||
----------------------|--------------------------------------o||
--12-10L--------------|--10----7L----7--9L----9---------------||
--2L-2L---------------|--2L----2L----2L-2L----2L--------------||


-------------------|-------------------|----------------------------|
-------------------|-------------------|----------------------------|
-------------------|-------------------|----------------------------|
-------------------|-------------------|----------------------------|
-------------------|-------------------|----------------------------|
--2L---------------|--2L---------------|--2L-2L-2L-2L---------------|


----------------------------------------|
----------------------------------------|
----------------------------------------|
--------------------10-9----------------|
----------------------------------------|
--2L----------2M------------------------|


----------------------------------------------------------------|
----------------------------------------------------------------|
----------------------------------------------------------------|
--10----------------------------------10----9-------------------|
----------------------------------------------------------------|
--------0M----0M-0M-0M----0M-0M-0M------------------------------|


----------------------------------------------------------------|
----------------------------------------------------------------|
----------------------------------------------------------------|
--10----------------------------------10----9-------------------|
----------------------------------------------------------------|
--------0M----0M-0M-0M----0M-0M-0M------------------------------|


----------------------------------------|
----------------------------------------|
----------------------------------------|
--10----10-9--10----10-9----------------|
----------------------------------------|
-----0M----------0M---------------------|


----------------------------------------------------------------|
----------------------------------------------------------------|
----------------------------------------------------------------|
--10----------------------------------10----9-------------------|
----------------------------------------------------------------|
--------0M----0M-0M-0M----0M-0M-0M------------------------------|


----------------------------------------------------------------|
----------------------------------------------------------------|
----------------------------------------------------------------|
--10----------------------------------10----9-------------------|
----------------------------------------------------------------|
--------0M----0M-0M-0M----0M-0M-0M------------------------------|


----------------------------------------------------------------|
----------------------------------------------------------------|
----------------------------------------------------------------|
--10----------------------------------10----9-------------------|
----------------------------------------------------------------|
--------0M----0M-0M-0M----0M-0M-0M------------------------------|


----------------------------------------|----------------------|
----------------------------------------|----------------------|
----------------------------------------|----------------------|
--10----10-9--10----10-9----------------|--10----10-9----------|
----------------------------------------|----------------------|
-----0M----------0M---------------------|-----0M---------------|


----------------------------------------------------------------|
----------------------------------------------------------------|
----------------------------------------------------------------|
----------------------------------------------------------------|
--7-----------------7h----9-----------------9h------------------|
--------0M-0M-0M----------------0M-0M-0M------------------------|


----------------------------------------------------------------|
----------------------------------------------------------------|
----------------------------------------------------------------|
--------------------7h----9-----------------9h------------------|
--10------------------------------------------------------------|
--------0M-0M-0M----------------0M-0M-0M------------------------|


----------------------------------------------------------------|
----------------------------------------------------------------|
----------------------------------------------------------------|
--10----------------9h----7-------------------------------------|
--------------------------------------------10------------------|
--------0M-0M-0M----------------0M-0M-0M------------------------|


----------------------------------------------------------------|
----------------------------------------------------------------|
----------------------------------------------------------------|
--7-------------------------------------------------------------|
--------------------10h---9-----------------5h------------------|
--------0M-0M-0M----------------0M-0M-0M------------------------|


----------------------------------------------------------------|
----------------------------------------------------------------|
----------------------------------------------------------------|
----------------------------------------------------------------|
--7-----------------7h----9-----------------9h------------------|
--------0M-0M-0M----------------0M-0M-0M------------------------|


----------------------------------------------------------------|
----------------------------------------------------------------|
----------------------------------------------------------------|
--------------------7h----9-----------------9h------------------|
--10------------------------------------------------------------|
--------0M-0M-0M----------------0M-0M-0M------------------------|


----------------------------------------------------------------|
----------------------------------------------------------------|
----------------------------------------------------------------|
--10----------------9h----7-----------------10------------------|
----------------------------------------------------------------|
--------0M-0M-0M----------------0M-0M-0M------------------------|


----------------------------------------------------------------|
----------------------------------------------------------------|
--7-------------------------------------------------------------|
--------------------10h---9-------------------------------------|
--------------------------------------------5h------------------|
--------0M-0M-0M----------------0M-0M-0M------------------------|


----------------------------------------------------------------|
----------------------------------------------------------------|
----------------------------------------------------------------|
----------------------------------------------------------------|
--7-----------------7h----9-----------------9h------------------|
--------0M-0M-0M----------------0M-0M-0M------------------------|


----------------------------------------------------------------|
----------------------------------------------------------------|
----------------------------------------------------------------|
--------------------7h----9-----------------9h------------------|
--10------------------------------------------------------------|
--------0M-0M-0M----------------0M-0M-0M------------------------|


----------------------------------------------------------------|
----------------------------------------------------------------|
----------------------------------------------------------------|
--10----------------9h----7-------------------------------------|
--------------------------------------------10------------------|
--------0M-0M-0M----------------0M-0M-0M------------------------|


----------------------------------------------------------------|
----------------------------------------------------------------|
----------------------------------------------------------------|
--7-------------------------------------------------------------|
--------------------10h---9-----------------5h------------------|
--------0M-0M-0M----------------0M-0M-0M------------------------|


----------------------------------------------------------------|
----------------------------------------------------------------|
----------------------------------------------------------------|
----------------------------------------------------------------|
--7-----------------7h----9-----------------9h------------------|
--------0M-0M-0M----------------0M-0M-0M------------------------|


----------------------------------------------------------------|
----------------------------------------------------------------|
----------------------------------------------------------------|
--------------------7h----9-------------------------------------|
--10------------------------------------------------------------|
--------0M-0M-0M----------------0M-0M-0M----0M------------------|


--------------------------------------------------------------------------------
--------------------------------------------------------------------------------
--------------------------------------------------------------------------------
--7s----------------------x-----------------------------------------------------
--5s----------------------x-----------------------------------------------------
--------------------------------------------------------------------------------


--------------------------------|-------------------|
--------------------------------|-------------------|
--------------------------------|-------------------|
--------------------------------|-------------------|
--------------------------------|-------------------|
--------------------------------|-------------------|


----------------------------------------|
----------------------------------------|
----------------------------------------|
----------------------------------------|
--2-----2-----2-----5M-4M---------------|
--0-----0-----0-----3M-2M---------------|


----------------------------------------|
----------------------------------------|
----------------------------------------|
----------------------------------------|
--2-----2-----2-----5M-4M---------------|
--0-----0-----0-----3M-2M---------------|


----------------------------------------|----------------------------||
----------------------------------------|----------------------------||
----------------------------------------|----------------------------||
----------------------------------------|----------------------------||
--2-----2-----2-----5M-4M---------------|--2-------------------------||
--0-----0-----0-----3M-2M---------------|--0-------------------------||
Добавлено: 23.10.2013
Другие материалы по этой песне:

Страница создана 14.03.2012
http://primanota.ru/kreator/warcurse-chords.htm
Привет, Гость.
Предлагаем пройти революционный курс по гитаре.
Подарок от PrimaNota.Ru, забирай!