PrimaNota.ru - самый крупный в мире бесплатный архив песенных текстов, аккордов, табулатур и нот


Kreator - Black Sunrise - текст песни, бас-таба, видео

Регистрация Запомнить меня
Войти через:  Facebook Google Twitter Vk Yandex Mail.ru

Kreator - Black Sunrise - текст песни, бас-таба, видео

Печатать
Просмотров: 188
Авторы музыки: Miland "Mille" Petrozza
Авторы текста: Miland "Mille" Petrozza
Kreator - Black Sunrise - Outcast 1997
http://www.kreator-terrorzone.de

Please correct it! 

2x forte!
|-----------------------------------------------------------------|
|-----------------------------------------------------------------|
|--------------0-(0)-3-2-0-2-(2)--------0-(0)--0------------------|
|--0-(0)-0-2-3--------------------0-2-3------3---3----------------|

2x (both lines) piano!
|-----------------------------------------------------------------|
|--14---14---14---14---16---17---15---15---15---15---15-----------|
|-----------------------------------------------------------------|
|----00---00---0----00---00---0----00---00---00---00---00---------|
|
|-----------------------------------------------------------------|
|--14---14---14---14---16---17---19---19---19---19---19-----------|
|-----------------------------------------------------------------|
|----00---00---0----00---00---0----00---00---00---00---00---------|

2x forte!
|-----------------------------------------------------------------|
|-----------------------------------------------------------------|
|--------------0-(0)-3-2-0-2-(2)--------0-(0)---0-----------------|
|--0-(0)-0-2-3--------------------0-2-3-------3---3---------------|

2x (both lines) piano!
|-----------------------------------------------------------------|
|--14---14---14---14---16---17---15---15---15---15---15-----------|
|-----------------------------------------------------------------|
|----00---00---0----00---00---0----00---00---00---00---00---------|
|
|-----------------------------------------------------------------|
|--14---14---14---14---16---17---19---19---19---19---19-----------|
|-----------------------------------------------------------------|
|----00---00---0----00---00---0----00---00---00---00---00---------|

2x forte!
|-----------------------------------------------------------------|
|-----------------------------------------------------------------|
|--------------0-(0)-3-2-0-2-(2)--------0-(0)---0-----------------|
|--0-(0)-0-2-3--------------------0-2-3-------3---3---------------|

2x
|-----------------------------------------------------------------|
|-----------------------------------------------------------------|
|--1--1--1--1--1---0--0--0--0--0----------------------------------|
|---00-00-00-00-00--00-00-00-00-00-400400400400400-200200200200200|

3x 
|-----------------------------------------------------------------|
|-----------------------------------------------------------------|
|-----------------------------------------------------------------|
|--1--1--1--3/4--2--2--2------------------------------------------|


|-----------------------crescendo---------------------------------|
|-----------------------------------------------------------------|
|----------------1--1-(1)-4--3------------------------------------|
|--1--1--1--3/4-----------------4---------------------------------|

2x forte!
|-------------------------------------------------|2.time---------|
|-------------------------------------------------|---------------|
|--------------0-(0)-3-2-0-2-(2)-------0-(0)---0--|--decrescendo--|
|--0-(0)-0-2-3-------------------0-2-3-------3---3|-0-(ring out)--|
Добавлено: 05.03.2012
Другие материалы по этой песне:

Страница создана 29.02.2012
http://primanota.ru/kreator/black-sunrise-chords.htm
Привет, Гость.
Предлагаем пройти революционный курс по гитаре.
Подарок от PrimaNota.Ru, забирай!