PrimaNota.ru - самый крупный в мире бесплатный архив песенных текстов, аккордов, табулатур и нот


Korpiklaani - Hunting Song - текст песни, таба, видео

Регистрация Запомнить меня
Войти через:  Facebook Google Twitter Vk Yandex Mail.ru

Korpiklaani - Hunting Song - текст песни, таба, видео

Печатать
Просмотров: 243
Band: Korpiklaani
Album: Voice of Wilderness
Song: Hunting Song

Copyright (c) Napalm Records 2005
Version 1.0 - January 30, 2006

Transcribed By: negative1
Email:          negative12002@aol.com


.  - palm mute           /  - slide up to
\  - slide down to       ~  - vibrato
h  - hammer on           b  - Bend
p  - pull off            Suffixes for bend
t  - tap                 f  - full bend    h - half bend
ph - pinched harmonic    q  - quarter bend t - tap bend
*  - see comment         ^  - Hold bend    r release bend
x  - Stuccatto           ~  - vibrato bend
,  - slight palm mute    () - ghost note, sustained note
"  - tremolo pick        <> - Trill


Tuning: Down 1 step (DGCFAD)


Intro (Riff 1):
|------------------------------------------|
|------------------------------------------|
|------------------------------------------|
|--2--------------------2--2--2-2-2--2-----|
|--2--------------------2--2--2-2-2--2-- --|
|--0--------------------0--0--0-0-0--0-----|
                        .  .  . . .      

(Riff 2):
|-------------------------------------|
|-------------------------------------|
|--5--------------8--7--5-------------|
|--5----6----3----8--7--5----6----3---|
|--3----6----3----6--5--3----6----3---|
|-------4----1---------------4----1---|


|-------------------------------------|
|-------------------------------------|
|--5--------------8--7--5---------5---|
|--5----6----3----8--7--5----6----5---|
|--3----6----3----6--5--3----6----3---|
|-------4----1---------------4--------|


Refrain (Riff 3):
|-----------------------------------------------------------------|
|-----------------------------------------------------------------|
|-5-5-5-5-----------------8-8-7-7-5-5-5-5-------------------------|
|-5-5-5-5-6-6-6-6-3-3-3-3-8-8-7-7-5-5-5-5-6-6-6-6-3-3-3-3-3-3-3-3-|
|-3-3-3-3-6-6-6-6-3-3-3-3-6-6-5-5-3-3-3-3-6-6-6-6-3-3-3-3-3-3-3-3-|
|---------4-4-4-4-1-1-1-1-----------------4-4-4-4-1-1-1-1-1-1-1-1-|
  .   .   .   .   .   .   .   .   .   .   .   .   .   .   .   . 


|-----------------------------------------------------------------|
|-----------------------------------------------------------------|
|-5-5-5-5-----------------8-8-7-7-5-5-5-5---------5-5-5-5-5-5-5-5-|
|-5-5-5-5-6-6-6-6-3-3-3-3-8-8-7-7-5-5-5-5-6-6-6-6-5-5-5-5-5-5-5-5-|
|-3-3-3-3-6-6-6-6-3-3-3-3-6-6-5-5-3-3-3-3-6-6-6-6-3-3-3-3-3-3-3-3-|
|---------4-4-4-4-1-1-1-1-----------------4-4-4-4-----------------|
  .   .   .   .   .   .   .   .   .   .   .   .   .   .   .   . 


|-----------------------------------------------------------------|
|-----------------------------------------------------------------|
|-5-5-5-5-----------------8-8-7-7-5-5-5-5-------------------------|
|-5-5-5-5-6-6-6-6-3-3-3-3-8-8-7-7-5-5-5-5-6-6-6-6-3-3-3-3-3-3-3-3-|
|-3-3-3-3-6-6-6-6-3-3-3-3-6-6-5-5-3-3-3-3-6-6-6-6-3-3-3-3-3-3-3-3-|
|---------4-4-4-4-1-1-1-1-----------------4-4-4-4-1-1-1-1-1-1-1-1-|
  .   .   .   .   .   .   .   .   .   .   .   .   .   .   .   . 


|---------------------------------------------------------------|
|---------------------------------------------------------------|
|-5-5-5-5-----------------8-8-7-7-5-5-5-5---------5-------5-----|
|-5-5-5-5-6-6-6-6-3-3-3-3-8-8-7-7-5-5-5-5-6-6-6-6-5-------5-----|
|-3-3-3-3-6-6-6-6-3-3-3-3-6-6-5-5-3-3-3-3-6-6-6-6-3-------3-----|
|---------4-4-4-4-1-1-1-1-----------------4-4-4-4---------------|
  .   .   .   .   .   .   .   .   .   .   .   .   


Verse (Riff 4):

|-----------------------------------------------------------------|
|-----------------------------------------------------------------|
|-5---------------3-------3/5-----3---------------5---------------|
|-5---------------3-------3/5-----3---------------5---------------|
|-3---3-3-3-3-3-3-1---1-1-1/3-3-3-1---1-1-1-1-1-1-3---3-3-3-3-3-3-|
|-----------------------------------------------------------------|
      . . . . . .     . .     . .     . . . . . .     . . . . . .

(Riff 5):
|-----------------------------------|
|-----------------------------------|
|------------5-------8--------------|
|-3----------5-------8-----3-----5--|
|-3----------3-------6-----3-----5--|
|-1------------------------1-----3--|



Riff 1--2x
Riff 2--2x
Riff 3--1x
Riff 4--2x
Riff 5--1x
Riff 4--1x
Riff 3--1x
Riff 4--2x
Riff 5--1x
Riff 4--1x
Riff 3--1x
Riff 2--1x
Riff 3--1x
Добавлено: 23.02.2012
Другие материалы по этой песне:

Страница создана 23.02.2012
http://primanota.ru/korpiklaani/hunting-song-chords.htm
Привет, Гость.
Предлагаем пройти революционный курс по гитаре.
Подарок от PrimaNota.Ru, забирай!