PrimaNota.ru - самый крупный в мире бесплатный архив песенных текстов, аккордов, табулатур и нот


Korpiklaani - Metsamies - таба, видео

Регистрация Запомнить меня
Войти через:  Facebook Google Twitter Vk Yandex Mail.ru

Korpiklaani - Metsamies - таба, видео

Печатать
Просмотров: 385
Авторы музыки: Jonne Järvelä
Авторы текста: Jonne Järvelä
-------------------------------------------------------------------------------
                             Metsämies - Korpiklaani
-------------------------------------------------------------------------------
Tabbed by: Phizzo
E-mail: phizzie@hotmail.de

Tuning: Dropped D

Please click this link, if you want to support me: http://j.gs/1TC6 ! Only 5s of your time
-------------------------------------------------------------------------------
Intro
=======

1st Guitar

e|---1-5-5-6-88-6-5-3-3-1-0-0-1-3-3-1-0-0-1-0--------------------------------|
B|-3------------------------------------------3-3----------------------------|
G|---------------------------------------------------------------------------|
D|---------------------------------------------------------------------------|
A|---------------------------------------------------------------------------|
D|---------------------------------------------------------------------------|

2nd Guitar
e|---------------------------------------------------------------------------|
B|---------------------------------------------------------------------------|
G|-----7------------5--------------------------------------------------------|
D|-----7------------5-----------7--------------0-----------------------------|
A|-----5------------3-----------7--------------0-----------------------------|
D|-----0------------------------7--------------0-----------------------------|

1st Guitar

e|---1-5-5-6-88-6-5-3-3-1-0-0-1-3-3-1-0-0-1-0-----1-5-5-3-1-0-0-1-3-1-0-1-0--|
B|-3------------------------------------------3-3---------------------------3|
G|---------------------------------------------------------------------------|
D|---------------------------------------------------------------------------|
A|---------------------------------------------------------------------------|
D|---------------------------------------------------------------------------|

2nd Guitar
e|---------------------------------------------------------------------------|
B|---------------------------------------------------------------------------|
G|-----7------------5---------------------------------------5----------------|
D|-----7------------5-----------7--------------0------------5-----------3-2-0|
A|-----5------------3-----------7--------------0------------3-----------3-2-0|
D|-----0------------------------7--------------0------------------------3-2-0|



Verses (strumming is easy, try what suits you best)
=======

e|---------------------------------------------------------------------------|
B|---------------------------------------------------------------------------|
G|---------------------------------------------------------------------------|
D|-----0------------5-----------7--------------0-----------------------------| x2
A|-----0------------5-----------7--------------0-----------------------------|
D|-----0------------5-----------7--------------0-----------------------------|


Chorus (strumming is easy, try what suits you best)
=======

e|---------------------------------------------------------------------------|
B|---------------------------------------------------------------------------|
G|-----7------------5--------------------------------------------------------|
D|-----7------------5-----------7--------------0-----------------------------|
A|-----5------------3-----------7--------------0-----------------------------|
D|-----0------------------------7--------------0-----------------------------|

e|---------------------------------------------------------------------------|
B|---------------------------------------------------------------------------|
G|-----7------------5---------------------------------------5----------------|
D|-----7------------5-----------7--------------0------------5-----------3-2-0|
A|-----5------------3-----------7--------------0------------3-----------3-2-0|
D|-----0------------------------7--------------0------------------------3-2-0|

Please click this link, if you want to support me: http://j.gs/1TC6 ! Only 5s of your time

************************************

| /   slide up
| \   slide down
| h   hammer-on
| p   pull-off
| ~   vibrato
| +   harmonic
| x   Mute note
| b   Bend
| pb  Pre-bend
| br  Bend release
| pbr Pre-bend release
| brb Bend release bend

************************************

Please click this link, if you want to support me: http://j.gs/1TC6 ! Only 5s of your time
Добавлено: 03.10.2013
Другие материалы по этой песне:

Страница создана 29.02.2012
http://primanota.ru/korpiklaani/metsamies-chords.htm
Привет, Гость.
Предлагаем пройти революционный курс по гитаре.
Подарок от PrimaNota.Ru, забирай!