PrimaNota.ru - самый крупный в мире бесплатный архив песенных текстов, аккордов, табулатур и нот


Korn - Sing Sorrow Bass - бас-таба, видео

Регистрация Запомнить меня
Войти через:  Facebook Google Twitter Vk Yandex Mail.ru

Korn - Sing Sorrow Bass - бас-таба, видео

Печатать
Просмотров: 169
-------------------------------------------------------------------------------
			    Sing Sorrow- KOrn
-------------------------------------------------------------------------------

Tabbed By :
e-mail:

Tuning:A,D,G,C,F
Pre-Verse
C|---------------------------------------------------------------------------|
G|---------------------------------------------------------------------------|
D|---------------------------------------------------------------------------|
A|55-55--55-55--77-77--8-8-8-8-----------------------------------------------|
Verse
C|-----------------------------------------------------------------------------|
G|-----------------------------------------------------------------------------|
D|------7--------7--------9--------10------------------------------------------|
A|55555----55555----77777-----88888--------------------------------------------|

Chrous
C|---------------------------------------------------------------------------|
G|---------------------------------------------------------------------------|
D|---------------------------------------------------------------------------|
A|--5555-54444-444-44-5555-54444-444-44--------------------------------------|

Then
C|-----------------------------------------------------------------------------|
G|-----------------------------------------------------------------------------|
D|-----------------------------------------------------------------------------|
A|--2222-21111-111-11-0000-0-5-------------------------------------------------|

Pre-Verse
C|-----------------------------------------------------------------------------|
G|-----------------------------------------------------------------------------|
D|-----------------------------------------------------------------------------|
A|-55-55--55-55--77-77--8 8--8-8-----------------------------------------------|

Bridge: 1 (after the guitar The little bass solo)SLAPPED REALLY FAST

C|-----------------------------------------------------------------------------|
G|-----------------------------------------------------------------------------|
D|---797575--------------------------------------------------------------------|
A|---------4-------------------------------------------------------------------|

PLay the chorus again then rest untill end

| /  slide up
| \  slide down
| h  hammer-on
| p  pull-off
| ~  vibrato
| +  harmonic
| x  Mute note
===============================================================================
Добавлено: 04.06.2012
Другие материалы по этой песне:
  • Аккорды и текст

Страница создана 04.06.2012
http://primanota.ru/korn/sing-sorrow-bass-chords.htm
Привет, Гость.
Предлагаем пройти революционный курс по гитаре.
Подарок от PrimaNota.Ru, забирай!