PrimaNota.ru - самый крупный в мире бесплатный архив песенных текстов, аккордов, табулатур и нот


Korn - Mr Rogers - аккорды и текст, таба, бас-таба, видео

Регистрация Запомнить меня
Войти через:  Facebook Google Twitter Vk Yandex Mail.ru

Korn - Mr Rogers - аккорды и текст, таба, бас-таба, видео

Печатать
Просмотров: 236
Mr Rogers
Korn
7-string guitar tuned down a full step

Intro
[---------------------
---------------------
---------------------]
[---------------------]Palm mute
[---------------------
---------------------
-0-0-2--0--0-0-2-0-2-]

Intro 2
[---------------------------
---------------------------
---------------------------
---------------------------
---------------------------
-2--2-2--8-2-2--2-2-7-8-9-
-0--0-0--6-0-0--0-0-5-6-7-]

Pre-verse
[-------------------x--x-x-x-x-x------
--------------x----------------------
-----------------x-------------------
-9-----------------------------------
-x-----------------------------------
-7-----------------------------------
-0-----------------------------------]

Verse
[-----------------------------
-----------------------------
---------11---10----10--11---
-9---------------------------
-----------------------------
-----------------------------
-----------------------------]
be my neibor part...
[-----------------------
-----------------------
-----------------------
-----------------------
-2-2-222--2--2-2-222-2-
-2-2-222--2--2-2-222-2-
-0-0-000--0--0-0-000-0-]

Bridge-same as the verse with weird effect over it.
Bridge 2-guitar 1
[-----------------
-----------------
-----------------
-----------------
-----------------
-2---2-2--2---3-
-0---0-0--0---1-]
Bridge 2-guitar 2
[--------------------------------
-16~~~~~~~~~~~~~-15~~~~~~~~~~~~-
--------------------------------
--------------------------------
--------------------------------
--------------------------------
--------------------------------]
Добавлено: 19.12.2013
Другие материалы по этой песне:

Страница создана 24.02.2012
http://primanota.ru/korn/mr-rogers-chords.htm
Привет, Гость.
Предлагаем пройти революционный курс по гитаре.
Подарок от PrimaNota.Ru, забирай!