PrimaNota.ru - самый крупный в мире бесплатный архив песенных текстов, аккордов, табулатур и нот


Korn - My Gift To You - аккорды и текст, таба, бас-таба, видео

Регистрация Запомнить меня
Войти через:  Facebook Google Twitter Vk Yandex Mail.ru

Korn - My Gift To You - аккорды и текст, таба, бас-таба, видео

Печатать
Просмотров: 206
My Gift To You
Korn
TUNING:		[A], [D], [G], [C], [F], [A], [D]

Intro/Verse:	[D--------10-----------------
A---------------------------
F-6-10-9----7--6-10-9-7h8-9-
C---------------------------
G---------------------------
D---------------------------
A---------------------------

Chorus:		D-----------------
A-----------------
F-6--6-6-7--6-6-7-
C-----------------
G-4--4-4-5--4-4-5-
D-----------------
A-----------------

Bridge:		D-------------7h8--7h8-
A----------------------
F----------------------
C----------------------
G----------------------
D-7---7---7------------
A---0---0---0----------]

-

uned Down One Half Whole Step ([DGCFAd])
(Intro And Verse)
(Guitar 1)
[d--------------------------
A--------------------------
F--6--6--7--7--6--7--7--6--
C--6--6--7--7--6--7--7--6--
G--4--4--5--5--4--5--5--4--]
[D--------------------------](Clean)
p.m ~ ~ ~ ~ ~ ~ ~ ~ ~ ~ ~ ~
(Guitar 2)
[d------------
A--6--9--7--
F------------
C------------
G------------]
[D------------](Whammy or Wah Effect)
(note:= Use Vibrato)
(Chorus)
[d--------------------------
A--------------------------
F--6--6--6--6--6--7--7--7--
C--6--6--6--6--6--7--7--7--
G--4--4--4--4--4--5--5--5--]
[D--------------------------](Heavy Distortion)
(Bridge: Part Where Jon goes..."They say this
thing inside me...")
(Guitar 1)
[d--------------------
A--------------------
F-4--5---------------
C-4--5---------------
G-2--3---------------
D--------------------]
p.m ~ ~ ~ ~ ~ ~ ~ ~ ~
This Part uses these two chords as the are palm muted..
figuring out the rythym to this part isnt hard..just listen.
(Guitar 2)
[d--------------------
A--12/13/12/13-------
F--------------------
C--------------------
G--------------------
D--------------------]
Добавлено: 27.04.2014
Другие материалы по этой песне:

Страница создана 04.04.2012
http://primanota.ru/korn/my-gift-to-you-chords.htm
Привет, Гость.
Предлагаем пройти революционный курс по гитаре.
Подарок от PrimaNota.Ru, забирай!