PrimaNota.ru - самый крупный в мире бесплатный архив песенных текстов, аккордов, табулатур и нот


Korn - Hollow Life - аккорды и текст, таба, бас-таба, видео

Регистрация Запомнить меня
Войти через:  Facebook Google Twitter Vk Yandex Mail.ru

Korn - Hollow Life - аккорды и текст, таба, бас-таба, видео

Печатать
Просмотров: 319
Авторы: Korn

Hollow Life
Korn
Tuning: 1 Step Down (A,D,G,C,F,A,D)
 
BRIDGE:
----------------------
----------------------
----------------------
----------------------
----------------------
-5-6-6-4--555-6-6-4-4-
-3-4-4-2--333-4-4-2-2-

VERSE: (guitar 1) (w/ effect)
-------------------------------------
-------------------------------------
-------------------------------------
-------------------------------------
-5-5/65--5-5/65--5-5/65--5-5/6/10-
-------------------------------------
-------------------------------------

VERSE: (guitar 2)
---------------------
---------------------
-7---5------7-7/8/12-
-X---X---7--X-X-X--X-
-5---3---X--5-5/6/10-
---------5-----------
---------------------

CHORUS:
-------------------------------------------
-------------------------------------------
-------------------------------------------
---9-9/11----------------9-9/11------------
---9-9/11--10------------9-9/11--10--------
---7-7/9---10------------7-7/9---10--5-7-5-
-0----------8--3-5-7-3-0----------8--3-5-3-

OUTRO: (trem - tremolo pick)
------------------------------------------------------------------
------------------------------------------------------------------
-11(trem)--9(trem)--12(trem)--14(trem)-12(trem)-14(trem)-12(trem)-
--X--------X---------X---------X--------X--------X--------X-------
--9--------7--------10--------12-------10-------12-------10-------
------------------------------------------------------------------
------------------------------------------------------------------
Добавлено: 27.01.2014
Другие материалы по этой песне:

Страница создана 23.02.2012
http://primanota.ru/korn/hollow-life-chords.htm
Привет, Гость.
Предлагаем пройти революционный курс по гитаре.
Подарок от PrimaNota.Ru, забирай!