PrimaNota.ru - самый крупный в мире бесплатный архив песенных текстов, аккордов, табулатур и нот


Korn - Innocent Bystander - текст песни, таба, видео

Регистрация Запомнить меня
Войти через:  Facebook Google Twitter Vk Yandex Mail.ru

Korn - Innocent Bystander - текст песни, таба, видео

Печатать
Просмотров: 184
Авторы: Zac Baird, The Matrix, Korn

KoRn - Innocent Bystander - Untitled

Tabbed by Elvisz (elvisz84@yahoo.com)
Tuning : 7 String Tuned Low to High (A D G C F a d)

Vocal: Jonathan Houseman Davis 'Hiv'
Guitar: James Randal Shaffer 'Munky'
Bass: Reginald Arvizu 'Fieldy'
Drums: Brooks Wackerman

Intro:
d|--------------|
a|--------------|
F|--------------|
C|--------------|
G|-9-9-10-11-12-|
D|-7-7- 8- 9-10-|
A|--------------|

Verse:
d|--------------|
a|--------------|
F|--------------|
C|--------------|
G|-9-9-10-11-12-|
D|-7-7- 8- 9-10-|
A|--------------|

Pre-Chorus:
d|--------------|
a|--------------|
F|--------------|
C|--------------|	(guitar1)
G|-9-9-10-11-12-|
D|-7-7- 8- 9-10-|
A|--------------|

d|-----------------------|
a|-----------------------|
F|-----------------------|
C|-17~~~--14~~~-13~~~~~~-|	Synth
G|-xx-----xx----xx-------|
D|-15~~~--12~~~-11~~~~~~-|
A|-----------------------|

Chorus:
Guitar1
d|-------------------------------------------|
a|-------------------------------------------|
F|-------------------------------------------|
C|-------------------------------------------|	(guitar1)
G|-77777777/88\77\55/77-77777777/88\77\55/77-|
D|-77777777/88\77\55/77-77777777/88\77\55/77-|
A|-55555555/66\55\33/55-55555555/66\55\33/55-|

d|---------------------------------------------|
a|---------------------------------------------|
F|---------------------------------------------|
C|---------------------------------------------|	(guitar1)
G|------10\99-7/99-10\99------10\99-7/99-10\99-|
D|-22-2- 8\77-5/77- 8\77-22-2- 8\77-5/77- 8\77-|
A|-00-0------------------00-0------------------|
   .. .                  .. .                   .palm mute

Guitar2
d|--------------------------------------|
a|--------------------------------------|
F|--------------------------------------|
C|-1414141414141414/1515\1414\1212/1414-|	(guitar2)
G|-1414141414141414/1515\1414\1212/1414-|
D|-1212121212121212/1313\1212\1010/1212-|
A|--------------------------------------|

d|--------------------------------------|
a|--------------------------------------|
F|--------------------------------------|
C|-1414141414141414/1515\1414\1212/1414-|	(guitar2)
G|-1414141414141414/1515\1414\1212/1414-|
D|-1212121212121212/1313\1212\1010/1212-|
A|--------------------------------------|

d|---------------------------------------------|
a|---------------------------------------------|
F|---------------------------------------------|
C|---------------------------------------------|	(guitar2)
G|------10\99-7/99-10\99------10\99-7/99-10\99-|
D|-22-2- 8\77-5/77- 8\77-22-2- 8\77-5/77- 8\77-|
A|-00-0------------------00-0------------------|
   .. .                  .. .                   .palm mute

Pre-Verse:
d|----------------------------|
a|----------------------------|
F|----------------------------|
C|----------------------------|	(guitar1)
G|-9-9-10-11-12---------------|
D|-7-7- 8- 9-10---------------|
A|----------------------------|

d|----------------------------|
a|----------------------------|
F|----------------------------|
C|----------------------------|	(guitar2 clean)
G|----------------------------|
D|---------------10----9----8-|
A|------------------00---00---|
                    ..   ..

Verse:
d|--------------|
a|--------------|
F|--------------|
C|--------------|
G|-9-9-10-11-12-|
D|-7-7- 8- 9-10-|
A|--------------|

Pre-Chorus:
d|--------------|
a|--------------|
F|--------------|
C|--------------|	(guitar1)
G|-9-9-10-11-12-|
D|-7-7- 8- 9-10-|
A|--------------|

d|-----------------------|
a|-----------------------|
F|-----------------------|
C|-17~~~--14~~~-13~~~~~~-|	Synth
G|-xx-----xx----xx-------|
D|-15~~~--12~~~-11~~~~~~-|
A|-----------------------|

Chorus:
Guitar1
d|-------------------------------------------|
a|-------------------------------------------|
F|-------------------------------------------|
C|-------------------------------------------|	(guitar1)
G|-77777777/88\77\55/77-77777777/88\77\55/77-|
D|-77777777/88\77\55/77-77777777/88\77\55/77-|
A|-55555555/66\55\33/55-55555555/66\55\33/55-|

d|---------------------------------------------|
a|---------------------------------------------|
F|---------------------------------------------|
C|---------------------------------------------|	(guitar1)
G|------10\99-7/99-10\99------10\99-7/99-10\99-|
D|-22-2- 8\77-5/77- 8\77-22-2- 8\77-5/77- 8\77-|
A|-00-0------------------00-0------------------|
   .. .                  .. .                   .palm mute

Guitar2
d|--------------------------------------|
a|--------------------------------------|
F|--------------------------------------|
C|-1414141414141414/1515\1414\1212/1414-|	(guitar2)
G|-1414141414141414/1515\1414\1212/1414-|
D|-1212121212121212/1313\1212\1010/1212-|
A|--------------------------------------|

d|--------------------------------------|
a|--------------------------------------|
F|--------------------------------------|
C|-1414141414141414/1515\1414\1212/1414-|	(guitar2)
G|-1414141414141414/1515\1414\1212/1414-|
D|-1212121212121212/1313\1212\1010/1212-|
A|--------------------------------------|

d|---------------------------------------------|
a|---------------------------------------------|
F|---------------------------------------------|
C|---------------------------------------------|	(guitar2)
G|------10\99-7/99-10\99------10\99-7/99-10\99-|
D|-22-2- 8\77-5/77- 8\77-22-2- 8\77-5/77- 8\77-|
A|-00-0------------------00-0------------------|
   .. .                  .. .                   .palm mute

Bridge1:
d|------------------------------------------------------|
a|------------------------------------------------------|
F|------------------------------------------------------|
C|------------------------------------------------------|
G|-------12-----------12------------14-----------14-----|
D|/14-14---1414-1111----1111--15-15---1515-11-11---1111-|
A|------------------------------------------------------|

Bridge2:
d|------------------------------------|
a|------------------------------------|
F|------------------------------------|
C|------------------------------------|
G|-2222--------1111--2222--------1111-|
D|-----3333--------------3333---------|
A|---------3333--------------3333-----|
   ................ .................  .palm mute
Bridge3:
d|------------------------------------|
a|------------------------------------|
F|------------------------------------|
C|-4444--------3333--4444--------3333-|
G|-22225555----1111--22225555----1111-|
D|-----33335555----------33335555-----|
A|---------3333--------------3333-----|

Bridge4:
Guitar1
d|-------------------------------------------|
a|-------------------------------------------|
F|-------------------------------------------|
C|-------------------------------------------|	(guitar1)
G|-77777777/88\77\55/77-77777777/88\77\55/77-|
D|-77777777/88\77\55/77-77777777/88\77\55/77-|
A|-55555555/66\55\33/55-55555555/66\55\33/55-|

d|---------------------------------------------|
a|---------------------------------------------|
F|---------------------------------------------|
C|---------------------------------------------|	(guitar1)
G|------10\99-7/99-10\99------10\99-7/99-10\99-|
D|-22-2- 8\77-5/77- 8\77-22-2- 8\77-5/77- 8\77-|
A|-00-0------------------00-0------------------|
   .. .                  .. .                   .palm mute

Guitar2
d|------------------------------------------|
a|------------------------------------------|
F|-11~~~~11^(12)~~~~~-----------------------|
C|-------------------9~~~~~~9^(10)~~~~r9~~~-|	(guitar2)
G|------------------------------------------|
D|------------------------------------------|
A|------------------------------------------|

d|------------------------------------------|
a|-15~~~~~~~~~~--16~~~~~~~~~~~--22~~~~~~~~~-|
F|-17^(18)~~~~~--18^(19)~~~~~~--24^(25)~~~~-|
C|------------------------------------------|	(guitar2)
G|------------------------------------------|
D|------------------------------------------|
A|------------------------------------------|

Fill1:
Guitar1
d|-------------------------------------------|
a|-------------------------------------------|
F|-------------------------------------------|
C|-------------------------------------------|	(guitar1)
G|-77777777/88\77\55/77-77777777/88\77\5-----|
D|-77777777/88\77\55/77-77777777/88\77\5-----|
A|-55555555/66\55\33/55-55555555/66\55\3-----|

d|---------------------------------------------|
a|---------------------------------------------|
F|---------------------------------------------|
C|---------------------------------------------|	(guitar2)
G|------10\99-7/99-10\99------10\99-7/99-10\99-|
D|------ 8\77-5/77- 8\77-22-2- 8\77-5/77- 8\77-|
A|-----------------------00-0------------------|
                         .. .                   .palm mute

Guitar2
d|--------------------------------------|
a|--------------------------------------|
F|--------------------------------------|
C|-1414141414141414/1515\1414\1212/1414-|	(guitar2)
G|-1414141414141414/1515\1414\1212/1414-|
D|-1212121212121212/1313\1212\1010/1212-|
A|--------------------------------------|

d|--------------------------------------|
a|--------------------------------------|
F|--------------------------------------|
C|-1414141414141414/1515\1414\12--------|	(guitar2)
G|-1414141414141414/1515\1414\12--------|
D|-1212121212121212/1313\1212\10--------|
A|--------------------------------------|

d|---------------------------------------------|
a|---------------------------------------------|
F|---------------------------------------------|
C|---------------------------------------------|	(guitar2)
G|------10\99-7/99-10\99------10\99-7/99-10\99-|
D|------ 8\77-5/77- 8\77-22-2- 8\77-5/77- 8\77-|
A|-----------------------00-0------------------|
                         .. .                   .palm mute

Chorus:
Guitar1
d|-------------------------------------------|
a|-------------------------------------------|
F|-------------------------------------------|
C|-------------------------------------------|	(guitar1)
G|-77777777/88\77\55/77-77777777/88\77\55/77-|
D|-77777777/88\77\55/77-77777777/88\77\55/77-|
A|-55555555/66\55\33/55-55555555/66\55\33/55-|

d|---------------------------------------------|
a|---------------------------------------------|
F|---------------------------------------------|
C|---------------------------------------------|	(guitar1)
G|------10\99-7/99-10\99------10\99-7/99-10\99-|
D|-22-2- 8\77-5/77- 8\77-22-2- 8\77-5/77- 8\77-|
A|-00-0------------------00-0------------------|
   .. .                  .. .                   .palm mute

Guitar2
d|--------------------------------------|
a|--------------------------------------|
F|--------------------------------------|
C|-1414141414141414/1515\1414\1212/1414-|	(guitar2)
G|-1414141414141414/1515\1414\1212/1414-|
D|-1212121212121212/1313\1212\1010/1212-|
A|--------------------------------------|

d|--------------------------------------|
a|--------------------------------------|
F|--------------------------------------|
C|-1414141414141414/1515\1414\1212/1414-|	(guitar2)
G|-1414141414141414/1515\1414\1212/1414-|
D|-1212121212121212/1313\1212\1010/1212-|
A|--------------------------------------|

d|---------------------------------------------|
a|---------------------------------------------|
F|---------------------------------------------|
C|---------------------------------------------|	(guitar2)
G|------10\99-7/99-10\99------10\99-7/99-10\99-|
D|-22-2- 8\77-5/77- 8\77-22-2- 8\77-5/77- 8\77-|
A|-00-0------------------00-0------------------|
   .. .                  .. .                   .palm mute

OUtro:
d|---------------------------------------------|
a|---------------------------------------------|
F|---------------------------------------------|
C|---------------------------------------------|	(guitar1)
G|------10\99-7/99-10\99------10\99-7/99-10\99-|
D|-22-2- 8\77-5/77- 8\77-22-2- 8\77-5/77- 8\77-|
A|-00-0------------------00-0------------------|
   .. .                  .. .                   .palm mute

d|-----------------------------------------------------------|
a|-15~~~~~~~~--16~~~~~~~~-17~~~~~~~~~~~~~~~~~~~~-22~~~~~~~~~-|
F|-17^(18)~~~--18^(19)~~~-19^(20)~~~~~~~~~~~~~~~-24^(25)~~~~-|
C|-----------------------------------------------------------|	(guitar2)
G|-----------------------------------------------------------|
D|-----------------------------------------------------------|
A|-----------------------------------------------------------|
Добавлено: 27.02.2012
Другие материалы по этой песне:

Страница создана 27.02.2012
http://primanota.ru/korn/innocent-bystander-chords.htm
Привет, Гость.
Предлагаем пройти революционный курс по гитаре.
Подарок от PrimaNota.Ru, забирай!