PrimaNota.ru - самый крупный в мире бесплатный архив песенных текстов, аккордов, табулатур и нот


Korn - Getting Off - текст песни, таба, бас-таба, видео

Регистрация Запомнить меня
Войти через:  Facebook Google Twitter Vk Yandex Mail.ru

Korn - Getting Off - текст песни, таба, бас-таба, видео

Печатать
Просмотров: 166
Уроки эстрадного вокала в Санкт-Петербурге
Авторы: The Matrix, Korn

KoRn - Getting Off - See You On The Other Side

Tabbed by Elvisz (elvisz@kornkids.com)
                 (elvisz84@yahoo.com)

Tuning : 7 String Tuned Low to High (A D G C F a d)

Vocal: Jonathan Houseman Davis 'Hiv'
Guitar: James Randal Shaffer 'Munky'
Bass: Reginald Arvizu 'Fieldy'
Drums: David Silveria

Intro:
d|------------|
a|------------|
F|------------|
C|------------|
G|------------|
D|-2-2-2-2222-|
A|-0-0-0-0000-|
   . . . ....   .palm mute

d|---------------------------------------------------------|
a|---------------------------------------------------------|
F|-11111111-11111111-12121212-12121212-8888-8888-7777-7777-|
C|-xxxxxxxx-xxxxxxxx-xxxxxxxx-xxxxxxxx-xxxx-xxxx-xxxx-xxxx-|
G|- 9 9 9 9- 9 9 9 9-10101010-10101010-6666-6666-5555-5555-|
D|---------------------------------------------------------|
A|---------------------------------------------------------|

Pre-Verse:
d|------------|
a|------------|
F|------------|
C|------------|
G|------------|
D|-2-2-2-2222-|
A|-0-0-0-0000-|
   . . . ....   .palm mute

Verse:
d|----------------|
a|----------------|
F|----------------|
C|-----9-9-99\8\7-|
G|-----x-x-xxxxxx-|
D|-222-7-7-77\6\5-|
A|-000-0-0--------|

Pre-Chorus:
d|------------------------------|-----------------------------|
a|------------------------------|-----------------------------|
F|------------------------------|-----------------------------|
C|-9--9109-9109-9109--910910910-|-9--9109-9109-9109--91012109-|
G|-x--xxxx-xxxx-xxxx--xxxxxxxxx-|-x--xxxx-xxxx-xxxx--xxxxxxxx-|
D|-7~-7 87-7 87-7 87--7 87 87 8-|-7~-7 87-7 87-7 87--7 810 87-|
A|------------------------------|-----------------------------|

d|-----------------------------|--------------|
a|-----------------------------|--------------|
F|-----------------------------|--------------|
C|-12~~~-14~~-9~~-9/10/12\10\9-|-12~~-14~~-9~-|
G|-12~~~-14~~-9~~-xxxxxxxxxxxx-|-12~~-14~~-9~-|
D|-10~~~-12~~-7~~-7/ 8/10\ 8\7-|-10~~-12~~-7~-|
A|-----------------------------|--------------|

Chorus:
d|--------------------|
a|--------------------|
F|--------------------|
C|-5-55-55-5-55-5-----|
G|-5-55-55-5-55-5-5~~-|
D|-3-33-33-3-33-3-5~~-|
A|----------------3~~-|

Pre-Verse:
d|------------|
a|------------|
F|------------|
C|------------|
G|------------|
D|-2-2-2-2222-|
A|-0-0-0-0000-|
   . . . ....   .palm mute

Verse:
d|----------------|
a|----------------|
F|----------------|
C|-----9-9-99\8\7-|
G|-----x-x-xxxxxx-|
D|-222-7-7-77\6\5-|
A|-000-0-0--------|

Pre-Chorus:
d|------------------------------|-----------------------------|
a|------------------------------|-----------------------------|
F|------------------------------|-----------------------------|
C|-9--9109-9109-9109--910910910-|-9--9109-9109-9109--91012109-|
G|-x--xxxx-xxxx-xxxx--xxxxxxxxx-|-x--xxxx-xxxx-xxxx--xxxxxxxx-|
D|-7~-7 87-7 87-7 87--7 87 87 8-|-7~-7 87-7 87-7 87--7 810 87-|
A|------------------------------|-----------------------------|

d|-----------------------------|--------------|
a|-----------------------------|--------------|
F|-----------------------------|--------------|
C|-12~~~-14~~-9~~-9/10/12\10\9-|-12~~-14~~-9~-|
G|-12~~~-14~~-9~~-xxxxxxxxxxxx-|-12~~-14~~-9~-|
D|-10~~~-12~~-7~~-7/ 8/10\ 8\7-|-10~~-12~~-7~-|
A|-----------------------------|--------------|

Chorus:
d|--------------------|
a|--------------------|
F|--------------------|
C|-5-55-55-5-55-5-----|
G|-5-55-55-5-55-5-5~~-|
D|-3-33-33-3-33-3-5~~-|
A|----------------3~~-|

Bridge1:
d|-------------------------|
a|-13~~-----24~~23~-24~~~~-|
F|-------------------------|
C|-------------------------|    (with delay)
G|-------------------------|
D|-------------------------|
A|-------------------------|

Bridge2:
d|--------------------|-----------|
a|--------------------|-----------|
F|--------------------|-----------|
C|--------------------|-----------|
G|-555-66-77----------|-555-66-77-|
D|-555-66-77----------|-555-66-77-|
A|-333-44-55----55-55-|-333-44-55-|
                .. ..               .palm mute
Bridge3:
d|------------------|
a|------------------|
F|------------------|
C|-----9-9-99\8\7-7-|
G|-----x-x-xxxxxx-x-|
D|-222-7-7-77\6\5-5-|
A|-000-0-0----------|

Bridge4:
d|-----------------------------|--------------|
a|-----------------------------|--------------|
F|-----------------------------|--------------|
C|-12~~~-14~~-9~~-9/10/12\10\9-|-12~~-14~~-9~-|
G|-12~~~-14~~-9~~-xxxxxxxxxxxx-|-12~~-14~~-9~-|
D|-10~~~-12~~-7~~-7/ 8/10\ 8\7-|-10~~-12~~-7~-|
A|-----------------------------|--------------|

Chorus:
d|--------------------|
a|--------------------|
F|--------------------|
C|-5-55-55-5-55-5-----|
G|-5-55-55-5-55-5-5~~-|
D|-3-33-33-3-33-3-5~~-|
A|----------------3~~-|
Добавлено: 17.06.2012
Другие материалы по этой песне:

Страница создана 09.05.2012
http://primanota.ru/korn/getting-off-chords.htm
Привет, Гость.
Предлагаем пройти революционный курс по гитаре.
Подарок от PrimaNota.Ru, забирай!