PrimaNota.ru - самый крупный в мире бесплатный архив песенных текстов, аккордов, табулатур и нот


Korn - Holding All These Lies - текст песни, таба, видео

Регистрация Запомнить меня
Войти через:  Facebook Google Twitter Vk Yandex Mail.ru

Korn - Holding All These Lies - текст песни, таба, видео

Печатать
Просмотров: 172
Korn - Korn III: Remember Who You Are - Holding All These Lies

Tabbed By: FRr3AkOnALEaSh (smokin_05@hotmail.com)
Tuning: 7 String Tuned Low to High (A D G C F a d)

Vocal: Jonathan Houseman Davis 'Hiv'
Guitar: James Randal Shaffer 'Munky'
Bass: Reginald Arvizu 'Fieldy
Drums: Ray Luzier

Riff 1 (Intro/Pre-Chorus)
D|----------------------|
A|----------------------|
F|----------------------|
C|----------------------|
G|----------------------|
D|--2-2-22--2-22--2222--|
A|--0-0-00--0-00--0000--|
    . . ..  . ..  ....   PM

Riff 2 (Intro)
D|------------------------|
A|------------------------|
F|------------------------|
C|------------------------|
G|------------------------|
D|------------------------|
A|--3-3-4p3--3-333-4p3-3--|

Riff 3 (Verse)
D|-------------------|-----|
A|-------------------|-----|
F|-------------------|-----|
C|-------------------|-----|
G|-------------------|--1--|
D|--2-2--2-22--2-22--|--^--|
A|--0-0--0-00--0-00--|-----|
    .            .          PM

Riff 4 (Chorus)
D|----------------------|----------------------|
A|----------------------|----------------------|
F|----------------------|----------------------|
C|----------7~----------|--444444444-5555-444--|
G|--2~--5---7~----------|--444444444-5555-444--|
D|--2~--5---5~----3~----|--222222222-3333-222--|
A|--0~--3-------1---1~--|----------------------|

Riff 5 (Bridge)
D|------------------------------|
A|------------------------------|
F|------------------------------|
C|------------------------------|
G|--5-5-5-5--4-4-4-4--2-2-2-2~--|
D|------------------------------|
A|------------------------------|

Riff 6 (Bridge)
D|-------------------|--------------------|----------------|
A|-----15-15-15-15~--|--------------------|----------------| I tried my best on
F|-------------------|-------10-10-10-10--|-------9-9-9-9--| this, but it's just
C|-------------------|--------------------|----------------| filled with way to
G|-------------------|--------------------|----------------| much effects to work
D|-------------------|--------------------|----------------| out properly.
A|--00---------------|--0000--------------|--0000----------|

Riff 7 (Bridge/Solo)
D|-----------------------------------------------------------------|
A|--19191919191919191919191919191919h20p1919h20p1919191919191919~--|
F|-----------------------------------------------------------------|
C|-----------------------------------------------------------------|
G|-----------------------------------------------------------------|
D|-----------------------------------------------------------------|
A|-----------------------------------------------------------------|

Riff 8 (Bridge/Solo)
D|--------------------------------------------|
A|--19191919191919191919/20\191919/20\191919--|
F|--23232323232323232323/23\232323/23\232323--|
C|--------------------------------------------|
G|--------------------------------------------|
D|--------------------------------------------|
A|--------------------------------------------|

Riff 9 (Bridge/Solo)
D|------------------------------------------------------------------------|
A|--19191919191919191919/22222222\2020202020202020\1919/2020202020202020--|
F|------------------------------------------------------------------------|
C|------------------------------------------------------------------------|
G|------------------------------------------------------------------------|
D|------------------------------------------------------------------------|
A|------------------------------------------------------------------------|

Riff 10 (Outro)(Guitar 1)
D|-----------------------------|
A|-----------------------------|
F|--7-7-7-7--6-6-6-6--4-4-4-4--|
C|--x-x-x-x--x-x-x-x--x-x-x-x--|
G|--5-5-5-5--4-4-4-4--2-2-2-2--|
D|-----------------------------|
A|-----------------------------|

Riff 11 (Outro)(Guitar 2)
D|-----------|
A|-----------|
F|-----------|
C|-----------|
G|--2-2-2-2--|
D|--2-2-2-2--|
A|--0-0-0-0--|
    . . .     PM

NOTE: Listen to the song to structure out each riff.
Добавлено: 10.04.2012
Другие материалы по этой песне:
  • Аккорды и текст

Страница создана 10.04.2012
http://primanota.ru/korn/holding-all-these-lies-chords.htm
Привет, Гость.
Предлагаем пройти революционный курс по гитаре.
Подарок от PrimaNota.Ru, забирай!