PrimaNota.ru - самый крупный в мире бесплатный архив песенных текстов, аккордов, табулатур и нот


Korn - Embrace - аккорды и текст, таба, бас-таба, видео

Регистрация Запомнить меня
Войти через:  Facebook Google Twitter Vk Yandex Mail.ru

Korn - Embrace - аккорды и текст, таба, бас-таба, видео

Печатать
Просмотров: 270
Авторы: Korn

Embrace
Korn
Tuning: 1 Step Down (A,D,G,C,F,A,D)

Intro:
-----------------------
-----------------------
-----------------------
-----------------------
-----------------------
---5-5/9-9---5-5/10-10-
-3---------3-----------

Intro 2:
------------
------------
------------
------------
------------
-3-2--2-2-2-
-1-0--0-0-0-

VERSE:
----------
----------
----------
----------
----------
-3-2--2-2-
-1-0--0-0-

BRIDGE: (guitar 1)
--------------------------------------
--------------------------------------
--------------------------------------
--------------------------------------
---5/65-5/6----------5/65-5/6-------
-----------------2--------------------
-3-----------3-4----3-----------3-6-4-

--------------------------------------
--------------------------------------
--------------------------------------
--------------------------------------
---5/65-5/6----------5/65-5/6-----6-
-----------------2----------------5---
-3-----------3-4----3-----------3-----

BRIDGE: (guitar 2) (trem. - tremolo pick)
----------------------    --------------------------------
----------------------    --------------------------------
[-14(trem.)--13(trem.)-]play[-14(trem.)--13(trem.)-19(trem.)-]
[--X----------X--------] 3X [--X----------X---------X--------]
[-12---------11--------]then[-12---------11--------17--------]
----------------------    --------------------------------
----------------------    --------------------------------

CHORUS:
------------------
------------------
------------------
-10-9-8-----------
-10-9-8-------8-7-
--8-7-6-5h6p5-8-7-
--------------6-5-

INTERLUDE:
-----------------------------------
-----------------------------------
-10(tremolo pick)--7(tremolo pick)-
--X----------------X---------------
--8----------------5---------------
-----------------------------------
-----------------------------------
Добавлено: 25.09.2013
Другие материалы по этой песне:

Страница создана 01.03.2012
http://primanota.ru/korn/embrace-chords.htm
Привет, Гость.
Предлагаем пройти революционный курс по гитаре.
Подарок от PrimaNota.Ru, забирай!