PrimaNota.ru - самый крупный в мире бесплатный архив песенных текстов, аккордов, табулатур и нот


Korn - Helmet In The Bush - аккорды и текст, таба, бас-таба, видео

Регистрация Запомнить меня
Войти через:  Facebook Google Twitter Vk Yandex Mail.ru

Korn - Helmet In The Bush - аккорды и текст, таба, бас-таба, видео

Печатать
Просмотров: 288
Авторы: Korn

Helmet In The Bush
Korn
		   KORN: KORN
HELMET IN THE BUSH
###I've been studying this song for a while and this is what I come up with...enjoy###

Intro and Chorus Riff
D||--------------------------------||
A||--------------------------------||
F||--------------------------------||
C||--------------------------------||
G||--------------------------------||
D||------4/5\3-3---------3/4\3-2---||
A||-0000-2/3\2-1---0000--1/2\1-0---||

Pre-Verse and Pre-Chorus Riff
D||----------------------||
A||----------------------||
F||----------------------||
C||----------------14^---||
G||----14^14^14^---------||
D||----------------------||
A||----------------------||

Verse Riff
D||----------------------------------||
A||----------------------------------||
F||----------------------------------||
C||--------7--------------9----------||
G||--------6--------------8----------||
D||--------5--------------7----------||
A|| -0000---0000----0000---0000------||

This is my first tab...I hope you like it.
I plan on doing more so look for me in the future.

Bridge Riff Guitar 1
D||--7------7--||
A||-------------||
F||-------------||
C||-------------||
G||-------------||
D||-------------||
A||-------------||

Bridge Riff Guitar 2
D||------------------||
A||------------------||
F||------------------||
C||------------------||
G||------------------||
D||--55-66-55-66--||
A||--33-44-33-44--||     
Добавлено: 22.11.2013
Другие материалы по этой песне:

Страница создана 21.02.2012
http://primanota.ru/korn/helmet-in-the-bush-chords.htm
Привет, Гость.
Предлагаем пройти революционный курс по гитаре.
Подарок от PrimaNota.Ru, забирай!