PrimaNota.ru - самый крупный в мире бесплатный архив песенных текстов, аккордов, табулатур и нот


Korn - Creep - текст песни, таба, видео

Регистрация Запомнить меня
Войти через:  Facebook Google Twitter Vk Yandex Mail.ru

Korn - Creep - текст песни, таба, видео

Печатать
Просмотров: 822
Авторы музыки: Ed O'Brien, Albert Hammond, Philip Selway, Thom Yorke, Mike Hazlewood, Jonny Greenwood, Colin Greenwood
Авторы текста: Thom Yorke
-------------------------------------------------------------------------------
                             CREEP - Korn
-------------------------------------------------------------------------------
(From MTV: Korn Unplugged)
____________________________________________
Tabbed by: Sebastian Ara.
Email MSN: playing.the.angel_@hotmail.com
Tuning: EADGBe (Standard)


VERSES & CHORUS:
                       G
e|-----5-----------5------5------5---------x-----------|
B|-----5-----------5------5------5---------x-----------|
G|(4)-----(4)--------(4)----(4)------(4)---x-----------|
D|-5-------5----------5------5--------5----x-----------|
A|-5-------5----------5------5--------5----x-----------|
E|-3-------3----------3------3--------3----x-----------|

                       B
e|------7----------7------7------7--------------------|
B|------7----------7------7------7--------------------|
G|-/8)----(8)--------(8)----(8)-------(8)-------------|
D|-/9------9----------9------9---------9--------------|
A|-/9------9----------9------9---------9--------------|
E|-/7------7----------7------7---------7--------------|

                       C
e|-----8-----------8------8------8--------------------|
B|-----8-----------8------8------8--------------------|
G|-/9)----(9)---------(9)-----(9)------(9)------------|
D|-/10-----10---------10------10--------10------------|
A|-/10-----10---------10------10--------10------------|
E|-/8------8----------8-------8---------8-------------|

                      Cm
e|----8-----------8------8------8---------------------|
B|----8-----------8------8------8---------------------|
G|(8)----(8)---------(8)-----(8)------(8)-------------|
D|-10-----10---------10------10--------10-------------|
A|-10-----10---------10------10--------10-------------|
E|-8------8----------8-------8---------8--------------|


Lyric (Korn's version is a little bit different than the original song):

'When you (were) here before,
Can't Look you in the eye,
You're just like an angel...
Your Skin Makes me Cry

You float like a feather,
e|---------------------------------------------------------------------------|
B|---------------------------------------------------------------------------|
G|---------------------------------------------------------------------------|
D|-5...---------------7-----5-------5\4------------7-4-----------------------|
A|---------------------------------------------------------------------------|
E|---------------------------------------------------------------------------|

e|---------------------------------------------------------------------------|
B|---------------------------------------------------------------------------|
G|---------------------------------------------------------------------------|
D|-2...---------------0-----2------2\1------------0--1-----------------------|
A|---------------------------------------------------------------------------|
E|---------------------------------------------------------------------------|
(Synth part, Arrenged for Guitar, repeats in almost all verses.)

in a beautiful world...,
I wish i was special,
Yes so very special.


But I'm A creep,
I'm a weirdo,
What the hell Am I doing here?
I don't belong here...

I don't care if it hurts,
i wanna have control,
I wanna a perfect body,
I wannna a perfect soul.

I want you to notice,
When I'm not around.
Yes, so very special
I wish I was special...

But I'm A creep,
e|---------------------|
B|---------------------|
G|-4-----4--4---7------|
D|-5-----5---------5---|
A|-5-----5-------------|
E|---------------------|
(Piano part, Arrenged for Guitar)

I'm a weirdo,
What the hell Am I doing here?
I don't belong here...

She's ... running out the door.
She's ... running out... run, run, run, ruuun... run...

e|3---------------------------------------------------------------------------|
B|3---------------------------------------------------------------------------|
G|4---------------------------------------------------------------------------|
D|5--------7--5---4--5---4--------/7--5--4-5--------------------/7--5--4-5-4--|
A|5---------------------------------------------------------------------------|
E|3---------------------------------------------------------------------------|


e|--------------|
B|--------------|
G|--------------|
D|------4-5-7-7-|
A|-7--7---------|
E|--------------|

(Mini piano solo or riff, arrrenged for Guitar, starts at 2:29)


Whatever makes you happy,
Whatever you are,
You're so very special.
I wish I was special.

But I'm a creep.
I'm a weirdo...
What the hell am I doing here...?
I don't belong here...

I don't belong... here...'

_____________________________________________
| /  slide up
| \  slide down
| x: palm mutting.
| (7): ghost/soft note
Добавлено: 21.05.2012
Другие материалы по этой песне:

Страница создана 17.04.2012
http://primanota.ru/korn/creep-chords.htm
Привет, Гость.
Предлагаем пройти революционный курс по гитаре.
Подарок от PrimaNota.Ru, забирай!