PrimaNota.ru - самый крупный в мире бесплатный архив песенных текстов, аккордов, табулатур и нот


Koji Kondo - Farewell King Hyrule - таба, видео

Регистрация Запомнить меня
Войти через:  Facebook Google Twitter Vk Yandex Mail.ru

Koji Kondo - Farewell King Hyrule - таба, видео

Печатать
Просмотров: 126
   This song is fairly easy because it repetitive.

Guitar 1
E|-----------------------|
B|-----------------------|
G|-----------------------|
D|------0----1----0----1-|
A|-----------------------|
E|3---3----4----3----4---|

Guitar 1*
E|-------------------|
B|-------------------|
G|-------------------|
D|--0----1----0----1-|
A|-------------------|
E|3----4----3----4---|
*repeat this over and over until
Guitar 2 is done with his part.

This part is not exactly correct because the piano notes "translating" into guitar frets 
sound correct. I don't know the tuning for the guitar for it.

Guitar 2* Part 1
E|2---2-3-5-3-1-2---|
B|--3-------------3-|
G|------------------|
D|------------------|
A|------------------|
E|------------------|
*Repeat again and then go to Part 2

Guitar 2* Part 2
E|5---5-6-8-6-4-5---|
B|--6-------------6-|
G|------------------|
D|------------------|
A|------------------|
E|------------------|
*Once done doing this part go back to Part 1
and play only once. After done playing Part 1
Guitar 1 stops when you do.

I'll try to get the rest of the sound put on here soon
Добавлено: 11.06.2012
Другие материалы по этой песне:
  • Аккорды и текст

Страница создана 11.06.2012
http://primanota.ru/koji-kondo/farewell-king-hyrule-chords.htm
Привет, Гость.
Предлагаем пройти революционный курс по гитаре.
Подарок от PrimaNota.Ru, забирай!