PrimaNota.ru - самый крупный в мире бесплатный архив песенных текстов, аккордов, табулатур и нот


Князь (Княzz) - Русский дух - аккорды и текст, видео

Регистрация Запомнить меня
Войти через:  Facebook Google Twitter Vk Yandex Mail.ru

Князь (Княzz) - Русский дух - аккорды и текст, видео

Печатать
Просмотров: 437
Русский дух
Князь (Княzz)
Solo #1
|-------------------------------------------------------------------------------
|-------------------------------------------------------------------------------
|--9-10---0----10-9-10------10-9-10--7--10-9-10-12-10-9-10-0-
|---------7------------------7-------------------------------------------------
|-------------------------------------------------------------------------------
|-------------------------------------------------------------------------------

Solo #2
|-------------------------------------------------------------------------------
|-------------------------------------------------------------------------------
|0----10-9-10-----10-9-10--7--10-9-10-5-777-10-9--------------
|-----------------7------------------------------------------------7-----------
|-------------------------------------------------------------------------------
|-------------------------------------------------------------------------------

Вступление: Gm A Dm

Dm 
Русь!
                                     A
Как опрометчиво зарился враг
На твои земли.
                 A#
Забрали ветра
                                     Gm
Надежды, обращенные в прах,
              E         A
И в пламени костра

Вновь
Читаю мысли я предков своих,
Святую ярость на русской земле
Могли обрушить в полях родных
На тех, кто шел извне.

Припев:

Dm
И земля героев помнит,
Gm       A#   A
И огонь не затух,
Dm
И отвагой грудь наполнит
Gm          
Русский дух.
A#        A
Русский дух.


Хоть многострадальна,
Но ни перед кем
Ты не дрожала, во все времена
Страх презирая, ждала перемен,
Вкусила бед сполна.
Русь!
Растила ты сыновей для борьбы,
Познала радость великих побед.
Во славу предков на подвиги мы
Прольем потомкам свет.
Добавлено: 17.11.2014
Другие материалы по этой песне:
  • Аккорды и текст

Страница создана 17.11.2014
http://primanota.ru/knyaz/russkii-dux-chords.htm
Привет, Гость.
Предлагаем пройти революционный курс по гитаре.
Подарок от PrimaNota.Ru, забирай!