PrimaNota.ru - самый крупный в мире бесплатный архив песенных текстов, аккордов, табулатур и нот


Klaus Doldinger - Tatort Theme - бас-таба, видео

Регистрация Запомнить меня
Войти через:  Facebook Google Twitter Vk Yandex Mail.ru

Klaus Doldinger - Tatort Theme - бас-таба, видео

Печатать
Просмотров: 108
Hey there! This is my first uploaded tab, so please excuse me if there are mistakes.

G|----------5-3-5-|
D|----3-5---------|   10x
A|3-63---3--------|
E|----------------|

G|----------7-5-7-|
D|----5-7---------|   4x
A|5-85---5--------|
E|----------------|

Bridge (my version)
G|----------------|----------------|----------------|----------------|
D|----------------|----------------|-------1-11---1-|----------------|
A|-------3-33-3-3-|-------3--333---|1---1-------1---|----------------|
E|3---3-----------|1--1----------1-|----------------|4--44--43--3333-|

G|----------5-3-5-|
D|----3-5---------|   6x
A|3-63---3--------|
E|----------------|

G|----------------|
D|--------------5-|   4x
A|3-3-------------|
E|----------------|

And there the improvisation starts! (8 bars C, 8 bars D, 16 bars C, 8 bars D and 
then C until fade out)

If you liked it, leave a rating & comment!
Добавлено: 21.10.2013
Другие материалы по этой песне:
  • Аккорды и текст

Страница создана 21.10.2013
http://primanota.ru/klaus-doldinger/tatort-theme-chords.htm
Привет, Гость.
Предлагаем пройти революционный курс по гитаре.
Подарок от PrimaNota.Ru, забирай!