PrimaNota.ru - самый крупный в мире бесплатный архив песенных текстов, аккордов, табулатур и нот


Klaus Badelt - Pirates Of The Caribbean Theme Hes A Pirate - таба, видео

Регистрация Запомнить меня
Войти через:  Facebook Google Twitter Vk Yandex Mail.ru

Klaus Badelt - Pirates Of The Caribbean Theme Hes A Pirate - таба, видео

Печатать
Просмотров: 157
e|--------------------------------------------------|
B|-------------5-6-6---6-8-5-5----------------------|
G|---5-7-7---7-------------------7-5-5h7------------|
D|-7------------------------------------------------|
A|--------------------------------------------------|
E|--------------------------------------------------|

e|--------------------------------------------------|
B|-------------5-6-6---6-8-5-5----------------------|
G|---5-7-7---7-------------------7-5-7~~------------|
D|-7------------------------------------------------|
A|--------------------------------------------------|
E|--------------------------------------------------|

e|-----------------------5-6-6---5---5--------------|
B|-------------6-8-8---8-----------8----------------|
G|---5-7-7---7-------------------------7------------|
D|-7------------------------------------------------|
A|--------------------------------------------------|
E|--------------------------------------------------|

e|----------5-6-------------------------------------|
B|---6-8-8------------6-5-5-------------------------|
G|-7------------7---7---------7-5-5h7---------------|
D|--------------------------------------------------|
A|--------------------------------------------------|
E|--------------------------------------------------|

e|--------------------------------------------------|
B|-------------5-6-6---6-8-5-5----------------------|
G|---5-7-7---7-------------------7-5-5h7------------|
D|-7------------------------------------------------|
A|--------------------------------------------------|
E|--------------------------------------------------|

e|--------------------------------------------------|
B|-------------5-6-6---6-8-5-5----------------------|
G|---5-7-7---7-------------------7-5-7~~------------|
D|-7------------------------------------------------|
A|--------------------------------------------------|
E|--------------------------------------------------|

e|-----------------------5-6-6---5---5--------------|
B|-------------6-8-8---8-----------8----------------|
G|---5-7-7---7-------------------------7------------|
D|-7------------------------------------------------|
A|--------------------------------------------------|
E|--------------------------------------------------|

e|----------5-6-------------------------------------|
B|---6-8-8------------6-5-5-------------------------|
G|-7------------7---7---------7-5h7-----------------|
D|--------------------------------------------------|
A|--------------------------------------------------|
E|--------------------------------------------------|

e|--------------5---------6----------------|
B|--3-3-5-6-8-----6-3-------6-3------------|
G|--------------------2---------3----2-3-2-|
D|-----------------------------------------|
A|-----------------------------------------|
E|-----------------------------------------|

e|-5-5-5-6-5----------------5-5-5-6-5-----------|
B|-------------8-8-8-8-10---------------8-8-5-3-|
G|----------------------------------------------|
D|----------------------------------------------|
A|----------------------------------------------|
E|----------------------------------------------| x2

e|--------5--6-----------------3--5----------|
B|--------------10-10-10-10-8--------8-8-5-3-|
G|-2-3-2-------------------------------------|
D|-------------------------------------------|
A|-------------------------------------------|
E|-------------------------------------------| x2
Добавлено: 27.06.2016
Другие материалы по этой песне:
  • Аккорды и текст

Страница создана 27.06.2016
http://primanota.ru/klaus-badelt/pirates-of-caribbean-theme-hes-a-pirate-chords.htm
Привет, Гость.
Предлагаем пройти революционный курс по гитаре.
Подарок от PrimaNota.Ru, забирай!