PrimaNota.ru - самый крупный в мире бесплатный архив песенных текстов, аккордов, табулатур и нот


Kiz - Der Durch Die Scheibeboxxxer - таба, видео

Регистрация Запомнить меня
Войти через:  Facebook Google Twitter Vk Yandex Mail.ru

Kiz - Der Durch Die Scheibeboxxxer - таба, видео

Печатать
Просмотров: 98
K.I.Z. - Der durch die Scheibeboxxxer

Album: Urlaub fürs Gehrin
Year: 2010

Tuning: D G C F A D (One Step Down)

Intro
D|---------------------------------------------------------------
A|---------------------------------------------------------------
F|---------------------------------------------------------------
C|---------2-0---0-----------------------2-0---0--------2-2-0----
G|--0--0-3-----3------------------0--0-3-----3----------------3--
D|-----------------1--1-1--0-0-------------------1--0-0----------

D|---------------------------------------------------------------
A|---------------------------------------------------------------
F|--------------------------------2-2--2-2--2-2--2-2-2-2-2-2-----
C|---------2-0---0----------------2-2--2-2--2-2--2-2-2-2-2-2-----
G|--0--0-3-----3------------------0-0--0-0--0-0--0-0-0-0-0-0-----
D|-----------------1--1-1--0-0-----------------------------------


Verse
D|--------------------------------------------------------------------------------------------------------------
A|--------------------------------------------------------------------------------------------------------------
F|--2-2---5--7---2-2---5--7---2-2----------2-2---5-7-9-7-5---2-2---5--7---2-2---5--7---2-2----------2-2---------
C|--2-2---5--7---2-2---5--7---2-2---3--2---2-2---5-7-9-7-5---2-2---5--7---2-2---5--7---2-2---3--2---2-2---------
G|--0-0---3--5---0-0---3--5---0-0---3--2---0-0---3-5-7-5-3---0-0---3--5---0-0---3--5---0-0---3--2---0-0---------
D|----------------------------------1--0-----------------------------------------------------1--0---------------

D|--------------------------------------------------------------------------------------------------------------
A|--------------------------------------------------------------------------------------------------------------
F|--2-2---------------5--7---2-2-----------------5--7---2-2------------------------2-2-----------------5-7-9-7-5
C|--2-2-----2-0---0---5--7---2-2-----2-0---0-----5--7---2-2-----2-0---0-----3--2---2-2-----2-0---0-----5-7-9-7-5
G|--0-0-0-3-----3-----3--5---0-0-0-3-----3-------3--5---0-0-0-3-----3-------3--2---0-0-0-3-----3-------3-5-7-5-3
D|------------------1------------------------1--------------------------1---1--0-------------------1------------
x2!

Chorus
D|------------------------------------------------------------------------------------
A|------------------------------------------------------------------------------------
F|--2-2----5--7----2-2----5--7----2-2------------2-2----5-7-9-7-5-2-2--2-2--2-2--2-2--
C|--2-2----5--7----2-2----5--7----2-2----3--2----2-2----5-7-9-7-5-2-2--2-2--2-2--2-2--
G|--0-0----3--5----0-0----3--5----0-0----3--2----0-0----3-5-7-5-3-0-0--0-0--0-0--0-0--
D|---------------------------------------1--0-----------------------------------------


Verse
D|--------------------------------------------------------------------------------------------------------------
A|--------------------------------------------------------------------------------------------------------------
F|--2-2---5--7---2-2---5--7---2-2----------2-2---5-7-9-7-5-2-2---5--7---2-2------------2-2----------2-2--2-2----
C|--2-2---5--7---2-2---5--7---2-2---3--2---2-2---5-7-9-7-5-2-2---5--7---2-2------------2-2---3--2---2-2--2-2----
G|--0-0---3--5---0-0---3--5---0-0---3--2---0-0---3-5-7-5-3-0-0---3--5---0-0------------0-0---3--2---0-0--0-0----
D|----------------------------------1--0-----------------------------------------------------1--0---------------

D|--------------------------------------------------------------------------------------------------------------
A|--------------------------------------------------------------------------------------------------------------
F|--2-2----------------5--7---2-2-----------------5--7---2-2------------------------2-2----------------5-7-9-7-5
C|--2-2-----2-0---0----5--7---2-2-----2-0---0-----5--7---2-2-----2-0---0-----3--2---2-2-----2-0---0----5-7-9-7-5
G|--0-0-0-3-----3------3--5---0-0-0-3-----3-------3--5---0-0-0-3-----3-------3--2---0-0-0-3-----3------3-5-7-5-3
D|------------------1-------------------------1--------------------------1---1--0-------------------1-----------

Chorus
D|----------------------------------------------------------------------------------------
A|----------------------------------------------------------------------------------------
F|--2-2------------2-2------------2-2------------2-2----5-7-9-7-5-2-2--2-2--2-2-2-2--2-2--
C|--2-2------------2-2------------2-2----3--2----2-2----5-7-9-7-5-2-2--2-2--2-2-2-2--2-2--
G|--0-0------------0-0------------0-0----3--2----0-0----3-5-7-5-3-0-0--0-0--0-0-0-0--0-0--
D|---------------------------------------1--0--------------------------------------------- 

Verse
D|--------------------------------------------------------------------------------------------------------------
A|--------------------------------------------------------------------------------------------------------------
F|--2-2-2---------------2-2-----------2-2--2-2--2-2--5-7-9-7-5-2-2----5--7----2-2------------2-2-----------2-2--
C|--2-2-2---------------2-2-----------2-2--2-2--2-2--5-7-9-7-5-2-2----5--7----2-2------------2-2---3--2----2-2--
G|--0-0-0---------------0-0-----------0-0--0-0--0-0--3-5-7-5-3-0-0----3--5----0-0------------0-0---3--2----0-0--
D|-------------------------------------------------------------------------------------------------1--0---------

D|--------------------------------------------------------------------------------------------------------------
A|--------------------------------------------------------------------------------------------------------------
F|--2-2----------------5--7----2-2------------------5--7----2-2--------------------------2-2--------------------
C|--2-2-----2-0---0----5--7----2-2-----2-0---0------5--7----2-2-----2-0---0------3--2----2-2-----2-0---0--------
G|--0-0-0-3-----3------3--5----0-0-0-3-----3--------3--5----0-0-0-3-----3--------3--2----0-0-0-3-----3----------
D|------------------1--------------------------1----------------------------1----1--0--------------------1------

D|------------------------------------
A|------------------------------------
F|--5-7-9-7-5-2-2--2-2--2-2--2-2-2-2--
C|--5-7-9-7-5-2-2--2-2--2-2--2-2-2-2--
G|--3-5-7-5-3-0-0--0-0000-0000-0-0-0--
D|------------------------------------

Chorus
D|------------------------------------------------------------------------------------
A|------------------------------------------------------------------------------------
F|--2-2------------2-2------------2-2------------2-2----5-7-9-7-5---------------------
C|--2-2------------2-2------------2-2----3--2----2-2----5-7-9-7-5---------------------
G|--0-0------------0-0------------0-0----3--2----0-0----3-5-7-5-3---------------------
D|---------------------------------------1--0-----------------------------------------

D|------------------------------------------------------------------------------------
A|------------------------------------------------------------------------------------
F|--2-2------------2-2------------2-2------------2-2----5-7-9-7-5-2-2--2-2--2-2--2-2--
C|--2-2------------2-2------------2-2----3--2----2-2----5-7-9-7-5-2-2--2-2--2-2--2-2--
G|--0-0------------0-0------------0-0----3--2----0-0----3-5-7-5-3-0-0--0-0--0-0--0-0--
D|---------------------------------------1--0-----------------------------------------
Добавлено: 09.08.2015
Другие материалы по этой песне:
  • Аккорды и текст

Страница создана 09.08.2015
http://primanota.ru/kiz/der-durch-die-scheibeboxxxer-chords.htm
Привет, Гость.
Предлагаем пройти революционный курс по гитаре.
Подарок от PrimaNota.Ru, забирай!