PrimaNota.ru - самый крупный в мире бесплатный архив песенных текстов, аккордов, табулатур и нот


Kings Of Leon - Work On Me - текст песни, таба, бас-таба, видео

Регистрация Запомнить меня
Войти через:  Facebook Google Twitter Vk Yandex Mail.ru

Kings Of Leon - Work On Me - текст песни, таба, бас-таба, видео

Печатать
Просмотров: 252
Авторы: Caleb Followill, Jared Followill, Matthew Followill, Nathan Followill

-----------------------------------------------------------------------------
                             Work on Me - Kings of Leon
-----------------------------------------------------------------------------
Tabbed by: cdberger
Email: cdberger98@gmail.com
Album: Mechanical Bull

Tuning: Standard

I seem to be the first one on the entire Internet to tab this song. I
apologize if anything is wrong I did this entirely by ear because there is
nothing else on the Internet. This is a probably my favorite song from this
album so I enjoyed tabbing it. Please leave any corrections or email me.
Enjoy!

Intro:

e|-------7----------7---|
B|-----7----------7-----|
G|---8-----8----8-----8-|
D|-9---------9----------|
A|----------------------|
E|----------------------|

e|-12--9----9----------------------------------12--9----9-----|
B|-------12---12--9-----9----------------------------12---12b-|
G|-------------------11---11--9----9--------------------------|
D|------------------------------11---11--9--------------------|
A|-----------------------------------------11-----------------|
E|------------------------------------------------------------|

e|-12--9----9---------------------------------12--9----9------------------|
B|-------12---12--9-----9---------------------------12---12b--12b--9--12--|
G|-------------------11---11--9----9--------------------------------------|
D|------------------------------11---11--9--------------------------------|
A|-----------------------------------------11-----------------------------|
E|------------------------------------------------------------------------|

Verse 1 (Guitar 1 is also played during intro)

Guitar 1

e|------------------------------|
B|------------------------------|
G|------------------------------|
D|-6--7--6--4--7--6--7--6--4--7-|
A|-7--9--7--6--6--7--9--7--6--6-|
E|------------------------------|

Guitar 2
The strumming is easy to figure out just listen to the song
e|--------------|
B|--------------|
G|-9--11--13--8-|
D|-x--x---x---x-|
A|-7--9---11--6-|
E|--------------|

Chorus

e|-------7----------7---|
B|-----7----------7-----|
G|---8-----8----8-----8-|
D|-9---------9----------|
A|----------------------|
E|----------------------|

Verse 2

Guitar 1

e|------------------------------|
B|------------------------------|
G|------------------------------|
D|-6--7--6--4--7--6--7--6--4--7-|
A|-7--9--7--6--6--7--9--7--6--6-|
E|------------------------------|

Guitar 2

e|--------------|
B|--------------|
G|-9--11--13--8-|
D|-x--x---x---x-|
A|-7--9---11--6-|
E|--------------|

Chorus

e|-------7----------7---|
B|-----7----------7-----|
G|---8-----8----8-----8-|
D|-9---------9----------|
A|----------------------|
E|----------------------|

Solo

e|---------------------|
B|--Currently-working--|
G|------on-the-solo----|
D|-----email-me-if-----|
A|-------you-can-help--|
E|---------------------|

Bridge

...get on your way...

Guitar 1

e|------------------------------|
B|------------------------------|
G|------------------------------|
D|-6--7--6--4--7--6--7--6--4--7-|
A|-7--9--7--6--6--7--9--7--6--6-|
E|------------------------------|

Guitar 2

e|-------7----------7---|
B|-----7----------7-----|
G|---8-----8----8-----8-|
D|-9---------9----------|
A|----------------------|
E|----------------------|

Chorus/Outro

Guitar 1

e|--------------|
B|--------------|
G|-9--11--13--8-|
D|-x--x---x---x-|
A|-7--9---11--6-|
E|--------------|

Guitar 2

e|-12--9----9---------------------------------12--9----9--------------------|
B|-------12---12--9-----9---------------------------12---12b--12b--12b--12b-|
G|-------------------11---11--9----9----------------------------------------|
D|------------------------------11---11--9----------------------------------|
A|-----------------------------------------11-------------------------------|
E|--------------------------------------------------------------------------|

e|-12--9----9---------------------------------12--9----9-----------------|
B|-------12---12--9-----9---------------------------12---12--9----9------|
G|-------------------11---11--9----9---------------------------11---11b--|
D|------------------------------11---11--9-------------------------------|
A|-----------------------------------------11----------------------------|
E|-----------------------------------------------------------------------|

e|-------7----------7-----|
B|-----7----------7-------|
G|---8-----8----8-----8--8|
D|-9---------9-----------9|
A|------------------------|
E|------------------------|

************************************

| x   Mute note
| b   Bend

************************************

It may not be 100% correct but it's pretty close. Email me or comment with
any corrections. Thanks!
Добавлено: 07.08.2013
Другие материалы по этой песне:

Страница создана 07.08.2013
http://primanota.ru/kings-of-leon/work-on-me-chords.htm
Привет, Гость.
Предлагаем пройти революционный курс по гитаре.
Подарок от PrimaNota.Ru, забирай!