PrimaNota.ru - самый крупный в мире бесплатный архив песенных текстов, аккордов, табулатур и нот


Kings Of Leon - Mollys Chamber - аккорды и текст, видео

Регистрация Запомнить меня
Войти через:  Facebook Google Twitter Vk Yandex Mail.ru

Kings Of Leon - Mollys Chamber - аккорды и текст, видео

Печатать
Просмотров: 149
Mollys Chamber
Kings Of Leon
This is my first tab it sonud ok its NOT 100% accurate,
 
MAIN RIFF:	------------------------------
------------------------------
------------------------------
-2-2-0-2-0-2-0--2-2-0-2-0-2-0-

CHORUS:		---------------------------------------------
---------------------------------------------
---------------------------------------------
-7-7-7-7-5-5-5-5-2-2-0-2-0-2-0-2-2-0-2-0-2-0-

------------------------------------------------
------------------------------------------------
------------------------------------------------
-7-7-7-7-10-10-10-10-2-2-0-2-0-2-0-2-2-0-2-0-2-0

enjoy hegehogs

-

Chords:
F#: [24432]
A : [57765]
B : [79987]
? : [04430]

F# is played for the whole of the verses with the barre being taken off to
make this chord [04430] you'll know what i mean if you just play it.

F#/?
Free- is all that she could bleed
That's why'll she'll never stay
White- bare naked in the night
Just lookin' for some play
Just another girl that wants to rule the world
Any time or place
And when she gets into your head
You know she's there to stay

B
You want it
A
She's got it
F#/?
Molly's Chambers gonna change your mind
A
She's got your
B
Your pistol

Slow- She's burnin' in your soul
With whispers in your ear
It's okay I'll give it anyway
Just get me out of here
You'll plead- you'll get down on your knees
For just another taste
And when you think she's let you in
That's when she fades away

You want it
She's got it
Molly's Chambers gonna change your mind
She's got your
Your pistol

Hope that makes sence!

-

Intro & verse (Guitar 1 and 2)
[e--------------------------------------------------------
B--------------------------------------------------------
G-3------------------------------------------------------
D-4--4-4-4-4-4-4--4-4-4-4-4-4--4-4-4-4-4-4--4-4-4-4-4---- } X6
A-4--4-4-4-4-4-4--4-4-4-4-4-4--4-4-4-4-4-4--4-4-4-4-4----
E-2--0-2-0-2-0-2--0-2-0-2-0-2--0-2-0-2-0-2--0-2-0-2-0----]

Choros
[e----------------------------------------------------------------------------
B----------------------------------------------------------------------------
G----------------------------------------------------------------------------
D-9--9--9-9-9-9-7--7--7-7-7-7-4--4-4-4-4-4-4--4-4-4-4-4-9--9--9-9-9-9-12--12-
A-9--9--9-9-9-9-7--7--7-7-7-7-4--4-4-4-4-4-4--4-4-4-4-4-9--9--9-9-9-9-12--12-
E-7--7--7-7-7-7-5--5--5-5-5-5-2--0-2-0-2-0-2--0-2-0-2-0-7--7--7-7-7-7-10--10-

e----------------------------------------------------------------------------
B----------------------------------------------------------------------------
G----------------------------------------------------------------------------
D-12-12-12-12----------------------------------------------------------------
A-12-12-12-12----------------------------------------------------------------
E-10-10-10-10----------------------------------------------------------------]

Verse (Guitar 1)
[e------------------------------------------------------
B------------------------------------------------------
G------------------------------------------------------
D-4--4-4-4-4-4-4--4-4-4-4-4-4--4-4-4-4-4-4--4-4-4-4-4-- } X5
A-4--4-4-4-4-4-4--4-4-4-4-4-4--4-4-4-4-4-4--4-4-4-4-4--
E-2--0-2-0-2-0-2--0-2-0-2-0-2--0-2-0-2-0-2--0-2-0-2-0--]

Guitar 2
[e-------------------------------------------------------
B-------------------------------------------------------
G---------------------------6--5-6-5-6-5-6-------------- } X5
D-------------------------------------------------------
A-------------------------------------------------------
E-------------------------------------------------------]

Play the chorus again

Solo
[e-12b14-12b14-12b14-12b14--12b14p12-9-----------------------12------12-------
B--------------------------------------12b14p12-10-10-10-12-13b14-14---------
G----------------------------------------------------------------------------
D----------------------------------------------------------------------------
A----------------------------------------------------------------------------
E----------------------------------------------------------------------------

e-12----------12-------------------------------------------------------------
B-13b14p13----13b14-4/----------4/----------4/-4/-2---2-4-4/-4/-4-4-4-4--4---
G----------14-------4/-2---2-4-4/-2---2-4-4/-4/---4-----4/-4/-4-4-4-4--4---
D-------------------------4-----------4--------------------------------------
A----------------------------------------------------------------------------
E----------------------------------------------------------------------------]

play the chorus till the end

-

Tuning: Standard tuning
I love this song it is brilliant. I thought it was brilliant when they played
it at song to play but I have not tabbed the solo. I will when I figure it out.
This is the exact to play at aswell.

Intro/Verse
Riff 1:
[e----------------------------------------------------------------------------
B----------------------------------------------------------------------------
G----------------------------------------------------------------------------
D-4-4-4-4-4-4-4-4-4-4-4-4-4-4------------------------------------------------
A-4-4-4-4-4-4-4-4-4-4-4-4-4-4------------------------------------------------
E-2-2-0-2-0-2-0-2-2-0-2-0-2-0------------------------------------------------]

After the first verse, (I think it is) play riff 1 with this after it.

[e22020202202020-------------------------------------------------------------
B22020202202020-------------------------------------------------------------
G---------------------------------------------------------------------------
D---------------------------------------------------------------------------
A---------------------------------------------------------------------------
E---------------------------------------------------------------------------]

Chorus:
Riff 2:
[e---------------------------------------------------------------------------
B---------------------------------------------------------------------------
G---------------------------------------------------------------------------
D-4/9-9-9-9-7-77------------------------------------------------------------
A-4/9-9-9-9-7-77------------------------------------------------------------
E-2/7-7-7-7-5-55------------------------------------------------------------]

To play the chorus, after playing Riff 2 play Riff 1 again and
then play Riff 2 again.

/  slide up
  slide down
h  hammer-on
p  pull-off
~  vibrato
+  harmonic
x  Mute note
Добавлено: 13.02.2014
Другие материалы по этой песне:
  • Аккорды и текст

Страница создана 13.02.2014
http://primanota.ru/kings-of-leon/mollys-chamber-chords.htm
Привет, Гость.
Предлагаем пройти революционный курс по гитаре.
Подарок от PrimaNota.Ru, забирай!