PrimaNota.ru - самый крупный в мире бесплатный архив песенных текстов, аккордов, табулатур и нот


Kent - Stoppa Mig Juni Lilla Ego - аккорды и текст, видео

Регистрация Запомнить меня
Войти через:  Facebook Google Twitter Vk Yandex Mail.ru

Kent - Stoppa Mig Juni Lilla Ego - аккорды и текст, видео

Печатать
Просмотров: 158
Stoppa Mig Juni Lilla Ego
Kent
Note: You need to tune your guitar a half step down.


intro: |G     |G     |Em    |Em    | 2x

   G
  Någon hade sagt att jag var feg,
                Em
  lilla Ego fy skäms
          G
  Att jag alltid stod där bakom och höll med
            Em
  sanningen känns
            C
  Jag har skuggat dig i kylan en hel dag
           Am       Em
  för att lämna tillbaks
      D
  den undanflykt som jag stal


|G     |G     |Em    |Em    | 2x

e ---------------------------------|
B ---------------------------------|
G ------4---2----------4---2-------|
D --0-4---------5--0-4---------5---|
A ---------------------------------|
E ---------------------------------|

      G
  Tar 2:an sitter ensam längst bak
                    Em
  Lilla Ego, sitt still
           G
  Jag har gått i dina fotspår hela dan
                Em
  till Hagnesta Hill
       C
  Den första snön har fallit, allt är halt
                        Em
  och min halsduk blev kvar
         D
  på en hållplats utanför stan...


|G     |G     |Em    |Em    | 2x

Slinga 1:
e ---------------------------------------------------|
B --12-10----------12-10-------12-10----------12-10--|
G --------12-11-12-------11-12-------12-11-12--------|
D ---------------------------------------------------|
A ---------------------------------------------------|
E ---------------------------------------------------|

       G
  Jag samlar allt mitt mod där vi allén
                Em
  lilla Ego har rymt
         G
  Jag skrek med målbrottsröst jag hatar er
                    Em
  som barn var jag grym
           C
  Den här känslan som jag har är inte min
            Am          Em
  den blev kvar, är den din?
        D         G
  Den smakar som du...


  Det är tårar, kan man gråta som en karl?
    Em
  Snälla du förlåt mig, jag glömde vem jag var
    Am                                            Em
  Snälla sluta lyssna, glöm allt jag sa, jag mår bra
            D
  Du måste lämna mig ifred

G
  Det är tårar, kan man gråta som en karl?
    Em
  Snälla du förlåt mig, jag glömde vem jag var
    Am                                            Em
  Snälla sluta lyssna, glöm allt jag sa, jag mår bra
            D          Am
  Du måste lämna mig ifred

Slinga 2:
e --12-10----------12-10-------12-10----------12-----|
B --------13-12-13-------12-13-------13-12-13--------|
G -----------------------------------------------12--|
D ---------------------------------------------------|
A ---------------------------------------------------|
E ---------------------------------------------------|
denna slinga 2x sedan slinga 1 och denna varannan gång.


C                     Em
  Jag behöver ingen hjälp
D                            Am
  vill du hjälpa hjälp dig själv
C                     Em
  jag behöver ingen hjälp
D                 Am
  så lämna mig ifred
C              Em
  lämna mig ifred...
D              Am      C
  lämna mig ifred...

|Em     |D     |Am    |C     | 2x

Em
Добавлено: 28.02.2012
Другие материалы по этой песне:
  • Аккорды и текст

Страница создана 28.02.2012
http://primanota.ru/kent/stoppa-mig-juni-lilla-ego-chords.htm
Привет, Гость.
Предлагаем пройти революционный курс по гитаре.
Подарок от PrimaNota.Ru, забирай!