PrimaNota.ru - самый крупный в мире бесплатный архив песенных текстов, аккордов, табулатур и нот


Kent - Stop me june - аккорды и текст, таба, видео

Регистрация Запомнить меня
Войти через:  Facebook Google Twitter Vk Yandex Mail.ru

Kent - Stop me june - аккорды и текст, таба, видео

Печатать
Просмотров: 211
Stop me june
Kent
-----------------------------------------------------------------------------
                                        Artist - Kent
                                       ***************
                               Song - Stop Me June (Little Ego) 
                              **********************************
                                    Album - Hagnesta Hill 
                                   ***********************
                                    Tabbed By - Ayreon77
                                   **********************
-----------------------------------------------------------------------------
Tuning = Standard

CAPO 1
*******

----------------------------------------------------------
INTRO
******
F Dm X2

----------------------------------------------------------
VERSE 1
********
          F
IÂ've been waiting for my brilliance to shine through
                   Dm
like waiting would   do 
          F
IÂ've been called a little coward more than once 
                   Dm
It hurts when itÂ's    true 
          B 
IÂ've been following your footprints in the snow 
            Dm         C            F
Trying to return the excuses that I stole  


----------------------------------------------------------
01:14
SECTION 1
CAPO 1
Clear Electric Guitar
e|-----------|
B|-----------|
G|-----3-0---|
D|---4-----4-|play this throughout
A|-4---------|   the 2 verse
E|-----------|


----------------------------------------------------------
VERSE 2
********
        F                                               Dm
IÂ'm the first on and the last off the bus Little ego be   still
      F
And I fight the cold wind back up the street 
            Dm
To Hagnesta   Hill 
        B                                                 Dm
And the darkness and the snow fallen as one and I lost my scarf
     C                           F
At a busstop on the outskirts of town 

SECTION 2
02:28
e|-6---------6-------6---------6---|
B|---9-7-6-7---9-6-7---9-7-6-7---9-|
G|---------------------------------|
D|---------------------------------|
A|---------------------------------|
E|---------------------------------|X4


----------------------------------------------------------
VERSE 3 - Pick SECTION 1 throughout verse 3
********
  F                                                 Dm
I gather all the courage and the hate Little ego is wild
       F
And my voice broke I finally reached that age
               Dm
I was cruel as    a child 
        B                                                    Dm
If this feeling that remains is not mine then itÂ's something new
         C                  F
Maybe my brilliance shining through 


----------------------------------------------------------
03:42
CHORUS - Play SECTION 2 with chorus X8
*******
    
ItÂ's noisy, canÂ't think I canÂ't speak 
Dm
   IÂ'm tired of handshakes so please 
       G#m                                    Dm
Get rid of this crowd I canÂ't breathe here anymore
         F
You just have to let me go, you 

ItÂ's noisy, canÂ't think I canÂ't speak...
Dm
   I,m tired of handshakes so please
       G#m                                    Dm
Get rid of this crowd I canÂ't breathe here anymore
     C              G#m
just have to let me go


SECTION 3
04:41
e|-11-------------11----------11-------------11----|
B|----14-12-11-12----14-11-12----14-12-11-12-------|
G|----------------------------------------------11-|
D|-------------------------------------------------|
A|-------------------------------------------------|
E|-------------------------------------------------|X2



CHORDS FOR OUTRO
G#m B Dm C

SECTION 2
you just have to let me go

SECTION 3
you just have to let me go

SECTION 2
you just have to let me go

SECTION 3
you just have to let me go

SECTION 2
you just have to let me go

SECTION 3
you just have to let me go

SECTION 2


SECTION 3


06:05
e|-6-------s---------s----11-|
B|---9---11\7-7---9-9\11-----|
G|---------------------------|
D|---------------------------|
A|---------------------------|
E|---------------------------|



ENJOY.........

Добавлено: 25.04.2014
Другие материалы по этой песне:
  • Аккорды и текст

Страница создана 12.10.2013
http://primanota.ru/kent/stop-me-june-chords.htm
Привет, Гость.
Предлагаем пройти революционный курс по гитаре.
Подарок от PrimaNota.Ru, забирай!