PrimaNota.ru - самый крупный в мире бесплатный архив песенных текстов, аккордов, табулатур и нот


Kent - Revolt Iii - текст песни, таба, видео

Регистрация Запомнить меня
Войти через:  Facebook Google Twitter Vk Yandex Mail.ru

Kent - Revolt Iii - текст песни, таба, видео

Печатать
Просмотров: 128
tab by raphael belhache

intro
eb -0-0-0--0--0--0--0--0--0--0--0--0--0--0--0--0--0--0---|
Bb -0-0-0--0--0--0--0--0--0--0--0--0--0--0--0--0--0--0---|
Gb -4-4-4--4--4--4--4--4--4--4--4--4--4--4--4--4--4--4---|
Db -4-4-4--4--4--4--4--4--4--4--4--4--4--4--4--4--4--4---|
Ab -2-2-2--2--2--2--2--2--2--2--2--2--2--2--2--2--2--2---|
Eb -x-x-x--x--x--x--x--x--x--x--x--x--x--x--x--x--x--x---|

eb -0--0--0--0--0--0--0--0--0--0--0--0--0--0--0--0---|
Bb -0--0--0--0--0--0--0--0--0--0--0--0--0--0--0--0---|
Gb -4--4--4--4--4--4--4--4--4--4--4--4--4--4--4--4---|
Db -4--4--4--4--4--4--4--4--4--4--4--4--4--4--4--4---|
Ab -2--2--2--2--2--2--2--2--2--2--2--2--2--2--2--2---|
Eb -3--3--3--3--3--3--3--3--0--0--0--0--0--0--0--0---|


|Bm    |D    |G    |Em    | 2x

Elgitarr:
              Bm             D              G
eb -------------|------------------------------|
Bb -------------|------------------------------|
Gb ---9b11r9----|-7-7-7-------7-7-7------------|
Db -----------9-|-------9---9-------9-------7--|
Ab -------------|----------------------7--9----|
Eb -------------|------------------------------|

                  Em                  (Bm)
eb ---------------------------------------|
Bb ---------------------------------------|
Gb ---9-9-9-7---7-9-9-9-7------7--9b11r9--|
Db ---9-9-9-9---9-9-9-9-9---9-------------|
Ab ---------------------------------------|
Eb ---------------------------------------|
b = bend, r = release


Gb --4-4-4-4-4-4-4-4-4-


   Bm       D             G     Em
  Peel my skin off baby, peel
   Bm       D             G     Em
  I need my TV nerves to feel
          Bm       D    G    Em
  That I don't care

|Bm   |D    |G    |Em   |

  Bm          D                  G    Em
  Shake, my legs won't stop to shake
   Bm       D                  G     Em
  I need a kicking 'cause I'm  fake

          D
  And I don't care
                          F#
  She's speeding all the time
                      Bm
  Exhausted, looking fine
      A              G      Em
  Oh baby you're a crime
          D           F#
  And I don't care
         Bm        A      G    Em
  No I don't care


|Bm   |D    |G    |Em   | 2x

   Bm       D            G    Em
  Peel my skin off so I feel
  Bm      D                    G     Em
  I have something you can't steal

             D
  'Cause I don't care
                          F#
  She's speeding all the time
                      Bm
  Exhausted, looking fine
      A              G      Em
  Oh baby you're a crime
         D           F#
  And I don't care
        Bm        A      G    Em
  No I don't care

|A    |A   |Em   |Em   | 2x

          Bm       D    G    Em
  And I don't care
         Bm       D    G    Em
  No I don't care


Solo:
Gb --7--6---7--6---6--4--6--4-- 2

eb -0-0-0--0--0--0--0--0--0--0--0--0--0--0--0--0--0--0---|
Bb -0-0-0--0--0--0--0--0--0--0--0--0--0--0--0--0--0--0---|
Gb -4-4-4--4--4--4--4--4--4--4--4--4--4--4--4--4--4--4---|
Db -4-4-4--4--4--4--4--4--4--4--4--4--4--4--4--4--4--4---|
Ab -2-2-2--2--2--2--2--2--2--2--2--2--2--2--2--2--2--2---|
Eb -x-x-x--x--x--x--x--x--x--x--x--x--x--x--x--x--x--x---|

eb -0--0--0--0--0--0--0--0--0--0--0--0--0--0--0--0---|
Bb -0--0--0--0--0--0--0--0--0--0--0--0--0--0--0--0---|
Gb -4--4--4--4--4--4--4--4--4--4--4--4--4--4--4--4---|
Db -4--4--4--4--4--4--4--4--4--4--4--4--4--4--4--4---|
Ab -2--2--2--2--2--2--2--2--2--2--2--2--2--2--2--2---|
Eb -3--3--3--3--3--3--3--3--0--0--0--0--0--0--0--0---|


|Bm    |D    |G    |Em    | 2x

guitar 1
              Bm             D              G
eb -------------|------------------------------|
Bb -------------|------------------------------|
Gb ---9b11r9----|-7-7-7-------7-7-7------------|
Db -----------9-|-------9---9-------9-------7--|
Ab -------------|----------------------7--9----|
Eb -------------|------------------------------|

                  Em                  (Bm)
eb ---------------------------------------|
Bb ---------------------------------------|
Gb ---9-9-9-7---7-9-9-9-7------7--9b11r9--|
Db ---9-9-9-9---9-9-9-9-9---9-------------|
Ab ---------------------------------------|
Eb ---------------------------------------|
b = bend, r = release


Gb --4-4-4-4-4-4-4-4-4-


   Bm       D             G     Em
  Peel my skin off baby, peel
   Bm       D             G     Em
  I need my TV nerves to feel
          Bm       D    G    Em
  That I don't care

|Bm   |D    |G    |Em   |

  Bm          D                  G    Em
  Shake, my legs won't stop to shake
   Bm       D                  G     Em
  I need a kicking 'cause I'm  fake

          D
  And I don't care
                          F#
  She's speeding all the time
                      Bm
  Exhausted, looking fine
      A              G      Em
  Oh baby you're a crime
          D           F#
  And I don't care
         Bm        A      G    Em
  No I don't care


|Bm   |D    |G    |Em   | 2x

   Bm       D            G    Em
  Peel my skin off so I feel
  Bm      D                    G     Em
  I have something you can't steal

             D
  'Cause I don't care
                          F#
  She's speeding all the time
                      Bm
  Exhausted, looking fine
      A              G      Em
  Oh baby you're a crime
         D           F#
  And I don't care
        Bm        A      G    Em
  No I don't care

|A    |A   |Em   |Em   | 2x

          Bm       D    G    Em
  And I don't care
         Bm       D    G    Em
  No I don't care


Solo:
Gb --7--6---7--6---6--4--6--4-- 2
Добавлено: 25.02.2012
Другие материалы по этой песне:

Страница создана 25.02.2012
http://primanota.ru/kent/revolt-iii-chords.htm
Привет, Гость.
Предлагаем пройти революционный курс по гитаре.
Подарок от PrimaNota.Ru, забирай!