PrimaNota.ru - самый крупный в мире бесплатный архив песенных текстов, аккордов, табулатур и нот


Kent - Revolt Iii - аккорды и текст, таба, видео

Регистрация Запомнить меня
Войти через:  Facebook Google Twitter Vk Yandex Mail.ru

Kent - Revolt Iii - аккорды и текст, таба, видео

Печатать
Просмотров: 177
Уроки эстрадного вокала в Санкт-Петербурге
Revolt Iii
Kent
Intro, gitarr 2 (obs. nedstämt 1/2 tonsteg):
eb|-0-0-0--0--0--0--0--0--0--0--0--0--0--0--0--0--0--|
Bb|-0-0-0--0--0--0--0--0--0--0--0--0--0--0--0--0--0--|
Gb|-4-4-4--4--4--4--4--4--4--4--4--4--4--4--4--4--4--|
Db|-4-4-4--4--4--4--4--4--4--4--4--4--4--4--4--4--4--|
Ab|-2-2-2--2--2--2--2--2--2--2--2--2--2--2--2--2--2--|
Eb|-x-x-x--x--x--x--x--x--x--x--x--x--x--x--x--x--x--|

eb|-0-0-0--0--0--0--0--0--0--0--0--0--0--0--0--0--0--0--|
Bb|-0-0-0--0--0--0--0--0--0--0--0--0--0--0--0--0--0--0--|
Gb|-4-4-4--4--4--4--4--4--4--4--4--4--4--4--4--4--4--4--|
Db|-4-4-4--4--4--4--4--4--4--4--4--4--4--4--4--4--4--4--|
Ab|-2-2-2--2--2--2--2--2--2--2--2--2--2--2--2--2--2--2--|
Eb|-3-3-3--3--3--3--3--3--3--3--0--0--0--0--0--0--0--0--|


|Bm    |D    |G    |Em    | 2x

Gitarr 1:
               Bm                D               G
eb|---------------|-------------------------------
Bb|---------------|-------------------------------
Gb|---9b11r9------|--7-7-7-------7-7-7------------
Db|------------7--|--------9---9-------9-------7--
Ab|---------------|----------------------7--9-----
Eb|---------------|-------------------------------

                  Em                   Bm
eb|---------------------------------------|
Bb|---------------------------------------| (repris
Gb|---9-9-9-7---7-9-9-9-7------7--9b11r9--|   från
Db|---9-9-9-9---9-9-9-9-9---9-------------|  första
Ab|---------------------------------------| sträcket)
Eb|---------------------------------------|  

b = bend, r = release 


   Bm       D          G     Em
  Svag så skakar mina ben 
       Bm         D          G    Em
  Och flickan med TV-nerver ler 

              Bm       D    G    Em
  Som om jag bryr mig 


|Bm   |D    |G    |Em   |

  Bm          D             G    Em
  Sänk mitt hjärta som en sten 
  Bm         D                G     Em
  Ge mig en käftsmäll jag är feg 

              D
  Som om jag bryr mig 
               F#
  så ökar vi igen 
                          Bm
  Jag är fartblind, kriminell 
        A            G      Em
  Du är aktuell du bränns 
               D           F#
  Som om jag bryr mig 
               Bm       A      G    Em
  Som om jag bryr mig 


|Bm   |D    |G    |Em   | 2x

   Bm      D              G    Em
  Jag, har alltid varit klen 
     Bm        D              G     Em
  Så ge mig Revolt I, II och III 

               D
  Som om jag bryr mig 
               F#
  Så ökar vi igen 
                          Bm
  Jag är fartblind, kriminell 
        A            G      Em
  Du är aktuell du bränns 
               D           F#
  Som om jag bryr mig 
              Bm       A      G    Em
  Som om jag bryr mig 

|A    |A   |Em   |Em   | 2x

              Bm      D    G    Em
  Som om jag bryr mig 
              Bm      D    G    Em
  Som om jag bryr mig 
Добавлено: 11.11.2017
Другие материалы по этой песне:

Страница создана 25.02.2012
http://primanota.ru/kent/revolt-iii-chords.htm
Привет, Гость.
Предлагаем пройти революционный курс по гитаре.
Подарок от PrimaNota.Ru, забирай!