PrimaNota.ru - самый крупный в мире бесплатный архив песенных текстов, аккордов, табулатур и нот


Kendrick Lamar - Swimming Pools Drank - аккорды и текст, таба, видео

Регистрация Запомнить меня
Войти через:  Facebook Google Twitter Vk Yandex Mail.ru

Kendrick Lamar - Swimming Pools Drank - аккорды и текст, таба, видео

Печатать
Просмотров: 338
Авторы: Kendrick Lamar, Tyler Williams

Swimming Pools Drank
Kendrick Lamar
Chords are G or ?, Eminor, Bminor, C#minor or C#minor Power Chord
 
        e--3----2--0-------2-------0----------4--|
        B--0----0--0-------3-------2----------5--|
        G--0----0--0-------4-------1----------6--|
        D--0----0--2-------4-------2----------6--|
        A--2----2--2-------2-------0----------4--|
        E--3----3--0-----------------------------|

I'm usin' C#minor Power Chord but use whatever feels right to you.

Intro / Pre Verse / Verse 1st Half

e-----------------------------------|
B-----------------------------------|
G------0---------------4-----6------|
D----0-------2-------4-----6---6----|
A----------2---2---2-----4-------4--|
E--3-----0-------0------------------|

Verse 2nd Half / Chorus

e--3--0---2---4--|
B--0--0---3---5--|
G--0--0---4---6--|
D--0--2---4---6--|
A--2--2---2---4--|
E--3--0----------|

Basically It's...

Intro
Pre Verse
Verse 1 (1st Half)
Verse 1 (2nd Half)
Chorus
Pre Verse
Verse 2 (1st Half)
Verse 2 (2nd Half)
Chorus
Verse 3 (1st Half)
Verse 3 (2nd Half)
Chorus
Добавлено: 19.11.2013
Другие материалы по этой песне:
  • Аккорды и текст

Страница создана 04.11.2013
http://primanota.ru/kendrick-lamar/swimming-pools-drank-chords.htm
Привет, Гость.
Предлагаем пройти революционный курс по гитаре.
Подарок от PrimaNota.Ru, забирай!