PrimaNota.ru - самый крупный в мире бесплатный архив песенных текстов, аккордов, табулатур и нот


Kd Lang - Hallelujah - текст песни, таба, видео

Регистрация Запомнить меня
Войти через:  Facebook Google Twitter Vk Yandex Mail.ru

Kd Lang - Hallelujah - текст песни, таба, видео

Печатать
Просмотров: 139
Авторы музыки: Leonard Cohen
Авторы текста: Leonard Cohen
-------------------------------------------------------------------------------
                            Hallelujah - KD Lang
-------------------------------------------------------------------------------
Tabbed by:Sophie Batten
E-mail:-
 
Tuning:Standard - can be played with capo on 3 for higher pitch

INTRO  
  C                              Am
e|------------------------------|---------------------------------------------|
B|-----------------1------------|-------------------1-------------------------|
G|------------0--------0--------|--------------2---------2--------------------|    
D|-------2------------------2---|----------2------------------2---------------|       
A|---3--------------------------|-----0---------------------------------------|
E|------------------------------|---------------------------------------------|
                    
  C                              Am                                 
e|------------------------------|--------------------------------------------|
B|-----------------1------------|-------------------1------------------------|
G|------------0--------0--------|--------------2-----------------------------|    
D|-------2------------------2---|----------2---------------------------------|       
A|---3--------------------------|-----0--------------------------------------|
E|------------------------------|--------------------------------------------|

VERSE 1
Well  I  he-ard     there     was          a   secret        cho--rd.... 
       C                              Am
     e|------------------------------|---------------------------------------------|
     B|-----------------1------------|-------------------1-------------------------|
     G|------------0--------0--------|--------------2---------2--------------------|
     D|-------2------------------2---|----------2------------------2---------------|
     A|---3--------------------------|-----0---------------------------------------|
     E|------------------------------|---------------------------------------------|

  that  david  played   and it       plea-sed the lord...                      
  C                              Am
e|------------------------------|--------------------------------------------|
B|-----------------1------------|-------------------1------------------------|
G|------------0--------0--------|--------------2-----------------------------|
D|-------2------------------2---|----------2---------------------------------|
A|---3--------------------------|-----0--------------------------------------|
E|------------------------------|--------------------------------------------|

But you   don't   rea--lly       ca--re   for       mu-sic  do   ya...
   F                        G                    C                     G
 e|------------------------|-------------------|---------------------|-------------------|
 B|--------------1---------|-----------3-------|------------1--------|----------3--------|
 G|----------2------2------|--------0-----0----|---------0-----0-----|-------0-----0-----|
 D|------3-------------3---|-----0----------0--|------2-----------2--|-----0----------0--|
 A|------------------------|-------------------|---3-----------------|-------------------|
 E|--1---------------------|--3----------------|---------------------|--3----------------|

Well it goes like this    the fourth     the  fifth... 
  C                       F              G
e|----------------------|-------------|----------------------------------------|
B|------------1---------|-------------|----------------------------------------|
G|---------0-----0------|--------2----|----------4-----------------------------|
D|-----2------------2---|-----3-------|------5---------------------------------|
A|--3-------------------|-------------|----------------------------------------|
E|----------------------|--1----------|--3-------------------------------------|

  the minor fall and the ma-jor li-ft...
  Am                 F
e|------------------|---------------------------------------------------------|
B|--------------1---|------------1--------------------------------------------|
G|----------2-------|--------2------2-----------------------------------------|
D|------2-----------|-----3---------------------------------------------------|
A|--0---------------|---------------------------------------------------------|
E|------------------|--1------------------------------------------------------|

  the baf-fled king com----po---sing        hal-le-lu-jah...
  G                    Em                  Am
e|----------------------|----------------|--------------------------------------|
B|---------------3------|----------0-----|----------1---------------------------|
G|-----------0-------0--|-------0--------|-------2-----2------------------------|
D|-------0--------------|-----2----------|----2----------2----------------------|
A|----------------------|--2-------------|--0-----------------------------------|
E|--3-------------------|----------------|--------------------------------------|

CHORUS
              hal---le-----lu-------jah                ha-le----lu-----jah
  Am                     F                                    Am
e|---------------------|-----------------|-------------------|---------------------|
B|------------1--------|-----------1-----|-----------1-------|----------1----------|
G|--------2------2-----|--------2-----2--|--------2----2-----|-------2-----2-------|
D|-----2------------2--|-----3-----------|-----3----------3--|-----2----------2----|
A|--0------------------|-----------------|-------------------|--0------------------|
E|---------------------|--1--------------|--1----------------|---------------------|

             hal---le-----lu-------jah                  ha--le--lu--uu--uu--uu-----------ja--aa-aah
  Am                     F                                    C                      G
e|---------------------|--------------------|-------------------|---------------------|-------------------|
B|------------1--------|-----------1--------|-----------1-------|----------1----------|----------3--------|
G|--------2------2-----|--------2-----2-----|--------2----2-----|-------2-----2-------|--------0----0-----|
D|-----2------------2--|-----3-----------3--|-----3----------3--|-----2----------2----|-----0----------0--|
A|--0------------------|--------------------|-------------------|--0------------------|-------------------|
E|---------------------|--1-----------------|--1----------------|---------------------|--3----------------|

  C                              Am
e|------------------------------|---------------------------------------------|
B|-----------------1------------|-------------------1-------------------------|
G|------------0--------0--------|--------------2---------2--------------------|    
D|-------2------------------2---|----------2------------------2---------------|       
A|---3--------------------------|-----0---------------------------------------|
E|------------------------------|---------------------------------------------|

VERSE 2...

same tab but with different lyrics



************************************

| /   slide up
| \   slide down
| h   hammer-on
| p   pull-off
| ~   vibrato
| +   harmonic
| x   Mute note
| b   Bend
| pb  Pre-bend
| br  Bend release
| pbr Pre-bend release
| brb Bend release bend

************************************
Добавлено: 21.12.2015
Другие материалы по этой песне:
  • Аккорды и текст

Страница создана 19.05.2012
http://primanota.ru/kd-lang/hallelujah-chords.htm
Привет, Гость.
Предлагаем пройти революционный курс по гитаре.
Подарок от PrimaNota.Ru, забирай!