PrimaNota.ru - самый крупный в мире бесплатный архив песенных текстов, аккордов, табулатур и нот


Kansas - Song For America - текст песни, бас-таба, видео

Регистрация Запомнить меня
Войти через:  Facebook Google Twitter Vk Yandex Mail.ru

Kansas - Song For America - текст песни, бас-таба, видео

Печатать
Просмотров: 230
Уроки эстрадного вокала в Санкт-Петербурге
Авторы музыки: Kerry Livgren
Авторы текста: Kerry Livgren
Kansas - Song For America (Bass Tab) by Logan Hall (loganhall2009@gmail.com)

Standard tuning

 Intro

(x7, x3 2nd time)             (x2)
|-5555-5-5--5----|-8888-8-8--8----|-8888-8-8--8------|
|----------------|----------------|------------------|
|----------x-3---|----------x-6---|----------x-6-6---|
|----------------|----------------|----------------4-|

              (x2)
|-----------------|-----------------|-----------------|---------------------|
|-----------------|-----------------|-----------------|---------------------|
|-----------------|-0-000---0-0-000-|-0-000---2-2-333-|-2-222-222-2-222-----|
|-3-333-333-3-333-|-------00--------|-------00--------|-----------------0---|


|----------|---------------0123-333-33----------|| |---------------5678-888-88---------|
|----------|-1-111-111-113---------------------o|| |-------------8---------------------|
|----0--2--|--------------------------1-111-11-o|| |-6-666-666-66-------------6-666-66-|
|-4--------|------------------------------------|| |-----------------------------------|

 Verse 1
 __________________________________________                                                                 
                                       (x2)|                                                
|--------------------|---------------------|
|--------------------|---------------------|
|-3---3----5--4--1-0-|-5----5----7--6--5-4-|
|--------------------|---------------------|

                                                                     (x2)
                                                  (x2) (retard. 2nd time)   (slower tempo)
|-----------------|-----------------|-----------------|-----------------|-----------------|---------------|
|-----------------|-----------------|-2-222-222-2-222-|-----------------|-----------------|-2-----2-------|
|-3-333-333-3-333-|-3-333-444-4-555-|-----------------|-4-444-444-4-444-|-5-555-555-5-555-|-----2---2-----|
|-----------------|-----------------|-----------------|-----------------|-----------------|-----------0---|



 Pre-Chorus 1

|---------------|------------------|---------------|--------------|
|-----------3-2-|-0--2--3----------|-----------3-2-|-0--2--3------|
|-0-------------|------------------|-0-------------|--------------|
|----3--1-------|----------1111-33-|----3--1-------|----------3---|

 Pre-Chorus 2 (new tempo)
__________________________________________
                                      (x4)|
|-14--13------11------------|-------------|-------|
|---------14-----12-14-11---|-------------|-------|
|---------------------------|-7--5--0-----|-7--5--|
|---------------------------|-------------|-------|

 Chorus 1

|--------------------9------------|------------------|--------------------9---(9)-119-------------------|
|---------7-7---9h11-----11-9-7---|------------------|---------7-7---9h11------------1197---------------|
|-0---7h9-------------------------|-0--245--4--------|-0---7h9---------------------------97-5420--------|
|---------------------------------|------------0-----|-------------------------------------9----420-----|

|---------------------------------|------------------|--------------------------9---|-------------------|
|---------7-7-------------7---7---|------------------|---------7-7-------------7----|-------------------|
|-0---7h9-------9p7-0---0---7-----|-0---245--4-------|-0---7h9-------9p7-0---07-----|-0---245420--------|
|---------------------------------|-------------0----|------------------------------|-----------420-----|

 Chorus 2
                                        (x2)
|-------------------------------------------|
|-------------------------------------------|
|-3--3--5-3-2--2--3-2-0--0--2-0-------------|
|-------------------------------4--2--0-----|

 Chorus 1

|---------------------------------|------------------|--------------------------9---|-------------------|
|---------7-7-------------7---7---|------------------|---------7-7-------------7----|-------------------|
|-0---7h9-------9p7-0---0---7-----|-0---245--4-------|-0---7h9-------9p7-0---07-----|-0---245420--------|
|---------------------------------|-------------0----|------------------------------|-----------420-----|

 Chorus 2
                                        (x2)
|-------------------------------------------|-------------|
|-------------------------------------------|-4--2--0-----|
|-3--3--5-3-2--2--3-2-0--0--2-0-------------|-------------|
|-------------------------------4--2--0-----|-------------|

 Interlude 1
                                        (x6)
|---------------------------------101112\---|
|----------0-3-0-5-3-0----------------------|
|----------------------3--------------------|
|-3---013----------------3---013------------|

                  (x2)
|---------------------|---------------------|---16151616---16171819\-|
|-3h5-----------------|----------2--3-5-----|------------------------|
|-----5-005-0050--0---|-5-005-005-----------|------------------------|
|-------------------3-|---------------------|------------------------|

                                        (x4)
|---------------------------------101112\---|
|----------0-3-0-5-3-0----------------------|
|----------------------3--------------------|
|-3---013----------------3---013------------|

                  (x2)
|---------------------|---------------------|---121112-161516---16171819\-|
|-3h5-----------------|----------2--3-5-----|-----------------------------|
|-----5-005-0050--0---|-5-005-005-----------|-----------------------------|
|-------------------3-|---------------------|-----------------------------|

 Keyboard Solo Section
                                        (x4)
|---------------------------------101112\---|
|----------0-3-0-5-3-0----------------------|
|----------------------3--------------------|
|-3---013----------------3---013------------|

 Verse 1 Reintroduced
 __________________________________________
                                       (x2)|
|--------------------|---------------------|
|--------------------|---------------------|
|-3---3----5--4--1-0-|-5----5----7--6--5-4-|
|--------------------|---------------------|

 Piano Medley (Rest)

 Breakdown 1
                  (x18)
|---------|------------|------------------|---------|------------|------------------|
|-0-------|-20-0-------|-20-----000111333-|-0-------|-20-0-------|-20---------------|
|--3-0--3-|---3-3-0--3-|---3-333----------|--3-0--3-|---3-3-0--3-|---3----------111-|
|---------|------------|------------------|---------|------------|-----111333444----|

                  (x18)
|---------|------------|------------------|---------|------------|-----------------------------------|
|-0-------|-20-0-------|-20-----000111333-|-0-------|-20-0-------|-20---------------------0002223335-|
|--3-0--3-|---3-3-0--3-|---3-333----------|--3-0--3-|---3-3-0--3-|---3-----------111333444-----------|
|---------|------------|------------------|---------|------------|------111333444--------------------|

 Breakdown 2

        
|---------------------|---------------|-----------|-----------------------|
|---------------------|---------------|-----------|-----------------------|
|---------5-5-----5-5-|-7-7-----------|---------5-|---------5--7----------|
|-----3-3-----3-3-----|-----5-5-1-1-3-|-----3-3---|-----3-3-------5--1--3-|

 Chorus 1

|--------------------9------------|------------------|--------------------9---(9)-119-------------------|
|---------7-7---9h11-----11-9-7---|------------------|---------7-7---9h11------------1197---------------|
|-0---7h9-------------------------|-0--245--4--------|-0---7h9---------------------------97-5420--------|
|---------------------------------|------------0-----|-------------------------------------9----420-----|

|---------------------------------|------------------|-------------------------9-----|---------------|
|---------7-7-------------7---7---|------------------|---------7-7--------------7-7--|---------------|
|-0---7h9-------9p7-0---0---7-----|-0---245--4-------|-0---7h9-------9p7-0---07--7-7-|-245420--------|
|---------------------------------|-------------0----|-------------------------------|-------420-----|

 Chorus 2
                                        
|-------------------------------------------|----------------------------------------------|
|-------------------------------------------|----------------------------------------------|
|-3--3--5-3-2--2--3-2-0--0--2-0-------------|-3--3--5-3-2--2--3-2-0--0--2-0----------------|
|-------------------------------4--2--0-----|-------------------------------4---2----0-----|

 Pre-Chorus 1 (Fade Out, End)

|---------------|------------------| Repeat until 
|-----------3-2-|-0--2--3----------| song ends.
|-0-------------|------------------|
|----3--1-------|----------1111-33-|
Добавлено: 29.09.2015
Другие материалы по этой песне:

Страница создана 28.02.2012
http://primanota.ru/kansas/song-for-america-chords.htm
Привет, Гость.
Предлагаем пройти революционный курс по гитаре.
Подарок от PrimaNota.Ru, забирай!