PrimaNota.ru - самый крупный в мире бесплатный архив песенных текстов, аккордов, табулатур и нот


Kana-boon - Naimononedari - бас-таба, видео

Регистрация Запомнить меня
Войти через:  Facebook Google Twitter Vk Yandex Mail.ru

Kana-boon - Naimononedari - бас-таба, видео

Печатать
Просмотров: 245
-------------------------------------------------------------------------------
                             ないものねだり  -  KANA-BOON
-------------------------------------------------------------------------------
Tabbed by: Simonjpop
E-mail: simon.hirschberger@ymail.com
Note: Please consider that this is my first Tab ever
Tuning:Standard


A: 00:24

G|--------------------------------|
D|--------------------------------|
A|444-------------444---------777-|
E|----222-555-000-----222-555-----|

Verse: 00:36

G|------------| x4
D|------------|
A|44----------|
E|---22-55-00-|

Oshiete..... 00:47

G|--------------------------------|
D|--------------------------------|
A|444-------------444-------------|
E|----222-555-000-----222-555-000-|


Verse: 00:53

G|-------------------| x4
D|-------------------|
A|44-----------------|
E|---22-55-00--------|


Bridge 01:03-1:14


G|-------------------------------------------|
D|-------------------------------------------|
A|2~--0~--2~--0~--2~--0~---------------------|
E|-----------------------333333355555555-----|

Verse: 1:14

G|----------------------------------| x4
D|----------------------------------|
A|4444444---------------------------|
E|--------2222222-5555555-0000000---|

Guitar only 01:35-01:42

G|---------------------------------|
D|---------------------------------|
A|444--------------444---------777-|
E|----222-555-000------222-555-----|

Verse 01:47

G|-------------------------------------------------------------------------|
D|-------------------------------------------------------------------------|
A|44--------Please Help me with this short part!!!-------------------------|
E|----22-------------------------------------------------------------------|

G|-------------| x7
D|-------------|
A|44-----------|
E|---22-55-00--|

2:09 - 02:18

G|------------------| x3
D|------------------|
A|2x2x2x2-0x0x0x0x--|
E|------------------|

G|-------------|
D|-------------|
A|2222-4444----|
E|-------------|

Verse: 02:20

G|--------------------------------| x6
D|--------------------------------|
A|4444444-------------------------|
E|--------2222222-5555555-0000000-|

02:53

G|-----------------|
D|-----------------|
A|-44-2-4----------|
E|--------550-000--|

G|---------------------------------|
D|---------------------------------|
A|4444444--------------------------|
E|--------2222222-5555555-0000000--|

///////////////////

Verse: 03:26

G|----------------| x2
D|----------------|
A|/4~-------------|
E|----2~--5~--0~--|

G|---------------------------------| x4
D|---------------------------------|
A|4444444--------------------------|
E|--------2222222-5555555-0000000--|

G|---------------------------------|
D|---------------------------------|
A|444-------------444--------------|
E|----222-555-000-----222-555-000--|

G|---------------| x3
D|---------------|
A|44-------------|
E|---22-55-00----|

End~~~~




| /  slide up
| \  slide down
| h  hammer-on
| p  pull-off
| ~  vibrato
| +  harmonic
| x  Mute note
===============================================================================
Добавлено: 23.11.2015
Другие материалы по этой песне:
  • Аккорды и текст

Страница создана 23.11.2015
http://primanota.ru/kana-boon/naimononedari-chords.htm
Привет, Гость.
Предлагаем пройти революционный курс по гитаре.
Подарок от PrimaNota.Ru, забирай!