PrimaNota.ru - самый крупный в мире бесплатный архив песенных текстов, аккордов, табулатур и нот


Калинов мост - Торопятся Взгляды - аккорды и текст, видео

Регистрация Запомнить меня
Войти через:  Facebook Google Twitter Vk Yandex Mail.ru

Калинов мост - Торопятся Взгляды - аккорды и текст, видео

Печатать
Просмотров: 328
Торопятся Взгляды
Калинов мост
intro  
 D                    Cm                  D          G            G7
---2-------------------------|
|----3-3-3----3-3-3-|----4--------4-----|-----7--7---8----8--8--|-6---6---6--|
|---2---2-2--2---2-2|---5-5-5----5-5-5--|----7-7--7----7---7--7-|---7--7---7-|
|-0---------0-------|--5---5-5--5---5-5-|---7---7----5--5---5---|----5--5----|
--------|-3--------3--------|-5----------------------|
-----------------------------|

--------------------|---1//4---4---------------------|
|---4-3h4p3---------------------|---0--------(0)------3--3/4---4-|
|----------5--4h5--------0----0-|-1--//4-4------(4)---4--4/5-5---|
------4h5---0----0-----------------------|
|-3-------------------1----2---------------------3---|
-----------------------------------------|

--------------------|---1//4---4---------7-7/8---8---|
|---4-3h4p3---------------------|---0--------(0)-----8-8---------|
|----------5--4h5--------0----0-|-1--//4-4------(4)--------5-----|
------4h5---0----0-----------------------|
|-3-------------------1----2-------------------------|
-----------------------------------------|

---------------------------------------------------------|
|----10--------7-----0--/3-|----10---------7-----------8-----8---6-----6-----6---|
|-11---11---8----8---------|-11----11---8----8-------7---7----7----7-----7-----7-|
--------0--/3--------------5-------5---------5-----5-----|
|-9---------6--6-6---------|-9--9--9----6--6-6---5-------------------------------|
---------------------------------------------------------|

Не уберечь в облаках       (криво) 
--8-------------------------------5----------------------|
7---7------------8--------------7---7-------8------8--6--|
|---------8------8---------7---7----------5-------5-------7----7--7--|
|-------7------------5---5-------5------7-----------7---5---5--------|
|--3//6----------------5--------------6------------------------------|
---------------------------------------------------------|


     - Торопятся взгляды

Торопятся взгляды
Успеть оседлать
Трепет ресниц сухих.
Усмехом заклятым
Плавник осетра
Видеть разлив Оки.
Дрогнули затемно,
Смехом легли,
Выбрались рассвет встречать
                     в закрома.
Следом стрела умна,
Перья легки,
Ринулась в цель от плеча
                   шаг хромать:
- Не уберечь в облаках...
Урочить досужий
Звенел серебром,
Плачем летел в пыли.
Распятьем задушен,
Хрустело ребро
Пухом чужих перин.
И поделом ручьи
Щеки секут, -
Ныне коней сажень
                     путана
Через ноздрю учил
Ночью якут
Не проморгать взашей
                        удали:
-  Чужих переч  не отругать...

         Cm -> D
Добавлено: 01.03.2012
Другие материалы по этой песне:

Страница создана 01.03.2012
http://primanota.ru/kalinov-most/toropyatsya-vzglyady-chords.htm
Привет, Гость.
Предлагаем пройти революционный курс по гитаре.
Подарок от PrimaNota.Ru, забирай!