PrimaNota.ru - самый крупный в мире бесплатный архив песенных текстов, аккордов, табулатур и нот


Кай Метов - Одиноким будет вечер - аккорды и текст, видео

Регистрация Запомнить меня
Войти через:  Facebook Google Twitter Vk Yandex Mail.ru

Кай Метов - Одиноким будет вечер - аккорды и текст, видео

Печатать
Просмотров: 655
Одиноким будет вечер
Кай Метов
Вступление: D F#m Hm Em A7sus4 A - 2p.

D                                      F#m
Одиноким будет вечер без тебя
   Hm                                        Em A7sus4 A
Грустно проплывают в небе облака
   D                                       F#m
Снова будут плакать ивы над рекой
Hm                                           Em A7sus4 A
И никто не знает что сейчас со мной.
       G+7                           A
Тихо вечер проведёт рукою и наступит ночь
            Em               F#                 E
Мы с тобой не вместе и никто не в силах нам помочь
          G                             Hm
Моря тёплая волна тронет спящие цветы
          E                                     F#
Так умеешь расставаться только ты.

Одиноким будет вечер без тебя
Почему сложилась так у нас судьба
Где-то там в печальном далеке
В этот поздний час грустишь ты обо мне.
Тихо вечер проведёт рукою и наступит ночь
Мы с тобой не вместе и никто не в силах нам помочь
Моря тёплая волна тронет спящие цветы
Так умеешь расставаться только ты.

Проигрыш: G+7 A, Em F# E
              G                                    Hm
E-----10----12-10---12-10-12-10------10---12-10----10-12-10-
H-12---12---------12-------------------12--12--------12-------------
G--------------------------------------------------------------------------
D--------------------------------------------------------------------------
A--------------------------------------------------------------------------
E---------------------------------------------------------------------------
             E                                                     F#
E-----10---14-12-10-------10----14-12-10--------10-12-12sl14-12sl14-12sl14-
H-12---12------------12-12---12------------12--12------------------------------------
G--------------------------------------------------------------------------------------------
D--------------------------------------------------------------------------------------------
A--------------------------------------------------------------------------------------------
E--------------------------------------------------------------------------------------------

E                                      G#m
Одиноким будет вечер без тебя
   C#m                                     F#m H7sus4 H
Грустно проплывают в небе облака
   E                                       G#m
Снова будут плакать ивы над рекой
C#m                                           F#m H7sus4 H
И никто не знает что сейчас со мной.
       A+7                           H
Тихо вечер проведёт рукою и наступит ночь
            F#m               G#                 F#
Мы с тобой не вместе и никто не в силах нам помочь
          A                             C#m
Моря тёплая волна тронет спящие цветы
          F#                                     G#
Так умеешь расставаться только ты.

Проигрыш: A+7 H, F#m G# F#
              A                                    C#m
E-----12----14-12---14-12-14-12------12---14-12----12-14-12-
H-14---14---------14-------------------14--14--------14-------------
G--------------------------------------------------------------------------
D--------------------------------------------------------------------------
A--------------------------------------------------------------------------
E---------------------------------------------------------------------------
             F#                                                     G#
E-----12---16-14-12-------12----16-14-12--------12-14-14sl16-14sl16-14sl16-
H-14---14------------14-14---14------------14--14------------------------------------
G--------------------------------------------------------------------------------------------
D--------------------------------------------------------------------------------------------
A--------------------------------------------------------------------------------------------
E--------------------------------------------------------------------------------------------
A+7 H, F#m G# F#
              A                                    C#m
E-----12----14-12---14-12-14-12------12---14-12----12-14-12-
H-14---14---------14-------------------14--14--------14-------------
G--------------------------------------------------------------------------
D--------------------------------------------------------------------------
A--------------------------------------------------------------------------
E---------------------------------------------------------------------------
             F#                                                     G#
E-----12---16-14-12-------12----16-14-12--------12-14-14sl16-14sl16-14sl16-
H-14---14------------14-14---14------------14--14------------------------------------
G-------------------------------------------------------------------------------------------- C#m
D--------------------------------------------------------------------------------------------
A--------------------------------------------------------------------------------------------
E--------------------------------------------------------------------------------------------



Добавлено: 05.11.2013
Другие материалы по этой песне:
  • Аккорды и текст

Страница создана 05.11.2013
http://primanota.ru/kai-metov/odinokim-budet-vecher-chords.htm
Привет, Гость.
Предлагаем пройти революционный курс по гитаре.
Подарок от PrimaNota.Ru, забирай!