PrimaNota.ru - самый крупный в мире бесплатный архив песенных текстов, аккордов, табулатур и нот


Judas Priest - Wheels Of Fire - текст песни, таба, видео

Регистрация Запомнить меня
Войти через:  Facebook Google Twitter Vk Yandex Mail.ru

Judas Priest - Wheels Of Fire - текст песни, таба, видео

Печатать
Просмотров: 352
From: Maff 
Subject: TAB: Judas Priest – Wheels of Fire

Judas Priest – Wheels of Fire
From “Angel Of Retribution”
unseen_apocalypse@hotmail.co.uk (Maff)
Unseen Apocalypse

Lyrics are not at the end of file

Starts with strange noises, to do with feedback or something

Regular Tuning EADGBe
Intro (Heavy Distortion) guitar 1

[A]
---------------------------------------------------------|
---------------------------------------------------------|
---------------------------------------------------------|
--5---------5---------5---7------------------------------|
--5---------5---------5---7------------------------------|
--3-0-0-0-0-3-0-0-0-0-3-0-5------------------------------|

[B] Guitar 1 and 2 after [A]
 ---------------------------------------------------------|
 ---------------------------------------------------------|
 ---------------------------------------------------------|
 --5---------5--------------------------------------------|
 --5---------5--------------------------------------------|
 --3-0-0-0-0-3-0-0-0-0-0-0-0-0----------------------------|


---------------------------------------------------------|
---------------------------------------------------------|
---------------------------------------------------------|
--5---------5---------5---7------------------------------|
--5---------5---------5---7------------------------------|
--3-0-0-0-0-3-0-0-0-0-3-0-5------------------------------|

 ---------------------------------------------------------|
 ---------------------------------------------------------|
 ---------------------------------------------------------|
 --5---------5--------------------------------------------|
 --5---------5--------------------------------------------|
 --3-0-0-0-0-3-0-0-0-0-0-0-0-0----------------------------|


Verses 1 and 2

1. Born on the other side     -        Of The Track
2. Gotta Get Outta Here       -        I Won't Look Back
-------------------      ----------------------------    -----------|
-------------------      ----------------------------    -----------|
-------------------      7--9--7--9------------------    -----------|
-------------------      7--9--7--9------------------    -5-/-7--2--|
-------------------      5--7--5--7------------------    -5-/-7--2--|
--0-0-0-0-0-0-0-0--      ------------0-0-0-0-0-0-0-0-    -3-/-5--0--|


Born On The Other Side-Wild As A Hurricane-Livin' in Overdrive
---------------------------------------------------------------|
---------------------------------------------------------------|
--5----------------2-----------------------5--------------7----|
--5----------------2----2--------------5---5--------------7----|
--3----------------0----2--------------5---3--------------5----|
------------------------0--------------3-----------------------|

Chorus part 1
                         1.Wheels Of Fire
                         2.In My Soul
----------------------------------------------------------------------|
----------------------------------------------------------------------|
----------------------------------------------------------------------|
----------------------------------------------------------------------|
----------------------------------------------------------------------|
--6---5---3---5---3----0---0-0-0-0-0-0-0-0---6---5----3----5----3---0-|

Chorus Part 2

  Wheels of Fire    Wheels of fire let em' roll
--------------------------------------------------------------------|
--------------------------------------------------------------------|
--------------------------------------------------------------------|
--------------------5----------4----3-------------------------------|
--------------------5----------4----3-------------------------------|
--0-0-0-0-0-0-0-0---3----------2----1-------------------------------|


Start This As Halford Says ‘Roll' At end of Chorus
---------------------------------------------------------|
---------------------------------------------------------|
---------------------------------------------------------|
--5---------5---------5---7------------------------------|
--5---------5---------5---7------------------------------|
--3-0-0-0-0-3-0-0-0-0-3-0-5------------------------------|


 ---------------------------------------------------------|
 ---------------------------------------------------------|
 ---------------------------------------------------------|
 --5---------5--------------------------------------------|
 --5---------5--------------------------------------------|
 --3-0-0-0-0-3-0-0-0-0-0-0-0-0----------------------------|


Verses 3 and 4

1. Too Fast To Give A Damn     -     Stand My Ground
2. No One Or Anything          -     Tie Me Down

-------------------       ----------------------------    ------------|
-------------------       ----------------------------    ------------|
-------------------       7--9--7--9------------------    ------------|
-------------------       7--9--7--9------------------    -5-/-7--2---|
-------------------       5--7--5--7------------------    -5-/-7--2---|
--0-0-0-0-0-0-0-0--       ------------0-0-0-0-0-0-0-0-    -3-/-5--0---|


Born On The Other Side-Wild As A Hurricane-Livin' in Overdrive
---------------------------------------------------------------|
---------------------------------------------------------------|
--5----------------2-----------------------5--------------7----|
--5----------------2----2--------------5---5--------------7----|
--3----------------0----2--------------5---3--------------5----|
------------------------0--------------3-----------------------|

Chorus part 1
                         1.Wheels Of Fire
                         2.In My Soul
----------------------------------------------------------------------|
----------------------------------------------------------------------|
----------------------------------------------------------------------|
----------------------------------------------------------------------|
----------------------------------------------------------------------|
--6---5---3---5---3----0---0-0-0-0-0-0-0-0---6---5----3----5----3---0-|

Chorus Part 2

  Wheels of Fire    Wheels of fire let em' roll
--------------------------------------------------------------------|
--------------------------------------------------------------------|
--------------------------------------------------------------------|
--------------------5----------4----3-------------------------------|
--------------------5----------4----3-------------------------------|
--0-0-0-0-0-0-0-0---3----------2----1-------------------------------|

Start This As Halford Says ‘Roll' At end of Chorus – Also Start small solo
---------------------------------------------------------|
---------------------------------------------------------|
---------------------------------------------------------|
--5---------5---------5---7------------------------------|
--5---------5---------5---7------------------------------|
--3-0-0-0-0-3-0-0-0-0-3-0-5------------------------------|

-----------------------------------------------------------|
 ----------------------------------------------------------|
 ----------------------------------------------------------|
 --5---------5---------------------------------------------|
 --5---------5---------------------------------------------|
 --3-0-0-0-0-3-0-0-0-0-0-0-0-0-----------------------------|


Ride  To  Live Live To  Ride   Wheels of fire           Forever!
-------------- ---- --------  ----------------------------------------|
-------------- ---- --------  ----------------------------------------|
--2---4---5--- ---- 5-------  2-----4-----5-----4-----2-2-2-2---------|
--2---4---5--- 3--- 5---5---  2-----4-----5-----4-----2-2-2-2---3---5-|
--0---2---3--- 3--- 3---5---  0-0-0-2-0-0-3-0-0-2-0-0-0-0-0-0---3---5-|
-------------- 1--- ----3---  ----------------------------------1---3-|

Rhythm For 1st part of solo
---------------------------------|
---------------------------------|
--5---------5--------------------|  x4
--5---------5--------------------|
--3-0-0-0-0-3-0-0-0-0-0-0-0-0----|
---------------------------------|
                                         Sorry, No Solo Available
 Rhythm for second part of solo
---------------------------------|
---------------------------------|
---------------------------------|
--5---------5---------5---7------|  x4
--5---------5---------5---7------|
--3-0-0-0-0-3-0-0-0-0-3-0-5------|


Born On The Other Side-Wild As A Hurricane-Livin' in Overdrive
---------------------------------------------------------------|
---------------------------------------------------------------|
--5----------------2-----------------------5--------------7----|
--5----------------2----2--------------5---5--------------7----|
--3----------------0----2--------------5---3--------------5----|
------------------------0--------------3-----------------------|

                        1.Wheels Of Fire
                         2.In My Soul
----------------------------------------------------------------------|
----------------------------------------------------------------------|
----------------------------------------------------------------------|
----------------------------------------------------------------------|
----------------------------------------------------------------------|
--6---5---3---5---3----0---0-0-0-0-0-0-0-0---6---5----3----5----3---0-|


  Wheels of Fire    Wheels of fire let em' roll
--------------------------------------------------------------------|
--------------------------------------------------------------------|
--------------------------------------------------------------------|
--------------------5----------4----3-------------------------------|
--------------------5----------4----3-------------------------------|
--0-0-0-0-0-0-0-0---3----------2----1-------------------------------|

---------------------------------------------------------|
---------------------------------------------------------|
---------------------------------------------------------| Continue until end and
-5---------5---------5---7---5---------5-----------------| fade out.
-5---------5---------5---7---5---------5-----------------|
-3-0-0-0-0-3-0-0-0-0-3-0-5---3-0-0-0-0-3-0-0-0-0-0-0-0-0-|

If anyone has the solo, please e-mail me at unseen_apocalyspe@hotmail.co.uk
Добавлено: 18.03.2012
Другие материалы по этой песне:

Страница создана 26.02.2012
http://primanota.ru/judas-priest/wheels-of-fire-chords.htm
Привет, Гость.
Предлагаем пройти революционный курс по гитаре.
Подарок от PrimaNota.Ru, забирай!