PrimaNota.ru - самый крупный в мире бесплатный архив песенных текстов, аккордов, табулатур и нот


Judas Priest - The Ripper - аккорды и текст, таба, бас-таба, видео

Регистрация Запомнить меня
Войти через:  Facebook Google Twitter Vk Yandex Mail.ru

Judas Priest - The Ripper - аккорды и текст, таба, бас-таба, видео

Печатать
Просмотров: 362
Авторы музыки: Glenn Tipton
Авторы текста: Glenn Tipton
The Ripper
Judas Priest
		   THE RIPPER           Unleashed in the east '79

 br=bend up and release
 p.o=pull off
 sl=slide
 ~~=vibrato

 Intro:                       Guitar 2:
                         ~~                        ~~
 |--------------14-------17-|-------------16-------19-|
 |-12-14-15-12-----15-12----|-14-16-17-14----17-14----|
 |--------------------------|-------------------------|
 |--------------------------|-------------------------|
 |--------------------------|-------------------------|
 |--------------------------|-------------------------|

 |--------------------------|-------------------------------------------------|
 |--------------------------|-------------------------------------------------|
 |--------------------------|-------------------------------------------------|
 |--------------------------|-------------------------------------------------|
 |-7-7-7-7-7-7....----------|-10-10-10-10-10-10-10-5-5-5-5-5-5-5-3-3-3-3-3-3-3|
 |-5-5-5-5-5-5....----------|-8--8--8--8--8--8--8--3-3-3-3-3-3-3-1-1-1-1-1-1-1|
 You're in for surprise...  When you least expect me...

 |--------------------------------|---------------------|
 |--------------------------------|---------------------|
 |-------------------------sl--sl-|---------------------|
 |--------------------------------|---------------------|
 |-2-2-2-2--------7-7-7-7-7>5-5 7-|-10----5----3----2---|
 |-0-0-0-0--------5-5-5-5-5>3-3 5-|-8-----3----1----0---|
           I'll attack             Oh hear my warning...

 |-------------------------------------|--------------------------------------|
 |----------------------8-7------------|-----------sl--sl---------------------|
 |------------------7-9-----7-10-9-8-9-|--------------------------------------|
 |------7-9-10-9-10--------------------|--------7-5>3-3 5---------------------|
 |-------------------------------------|-7-7-7--5-3>1-1 3---------------------|
 |-------------------------------------|-5-5-5--------------------------------|
  the ripper                             fill

 Solo:
 |-br-------------br-p.o------------br-------------br-p.o------br-------------
 |-15-13-12-13----13-12----12-13-15-15-13-12-13----13-12----12-12-10-12----10-
 |----------------------14-------------------------------14-------------12----
 |-------------14-------------------------------14----------------------------
 |----------------------------------------------------------------------------
 |----------------------------------------------------------------------------

 |br-------------br---------------------------------------|
 |12-10-12-10-12-12-10-12-10---------10-------13-13----10-|
 |---------------------------12-11-9----12----------12----|
 |-----------------------------------------12-------------|
 |--------------------------------------------------------|
 |--------------------------------------------------------|

 |:  2 times                     :|
 |--------------------------------|-------------------------------------|
 |--------------------------------|-------------------------------------|
 |--------------------------------|-------------------------------------|
 |------------7-----------------7-|---------------8--------------------8|
 |7-9-10-9-10--10-9-7-9-10-9-10---|8-10-11-10-11---11-10-8-10-11-10-11--|
 |--------------------------------|-------------------------------------|

 |-----------------------------------------------------------------------------
 |-----------------------------------------------------------------------------
 |-----------------------------------------------------------------------------
 |--------------9---------------------9----------------10----------------------
 |9-11-12-11-12---12-11-9-11-12-11-12---10-12-13-12-13----13-12-10-12-13-12-13-
 |-----------------------------------------------------------------------------

 ---|-------------------------------------------------------------------|
 ---|-------------------------------------------------------------------|
 ---|-------------------------------------------------------------------|
 -10|----------------11----------------------------------------------14-|
 ---|-11-13-14-13-14----14-13-12-14-15-14-13-15-16-15-14-16-17-16-17----|
 ---|-------------------------------------------------------------------|

 |: 2 times
 |---------------------------------|----------------------------------------|
 |---------------------------------|----------------------------------------|
 |---------------------------------|----------------------------------------|
 |-------------7-----------------7-|-7------6-----5-----7-------------------|
 |-7-9-10-9-10--10-9-7-9-10-9-10---|----------------------------------------|
 |---------------------------------|----------------------------------------|
                                    fill ("I'm a nasty surprise...")

 End:
 |: 2 times                      :|
 |--------------------------------|-------------------------------------------|
 |-----------------8-7------------|-----------------8-7-----------------------|
 |-------------7-9-----7-10-9-8-9-|-------------7-9-----7-10-9-8-9-8-7-8------|
 |-7-9-10-9-10--------------------|-7-9-10-9-10--------------------------10---|
 |--------------------------------|-------------------------------------------|
 |--------------------------------|-------------------------------------------|

 |---------------------|
 |---------------------|
 |---------------------|
 |-10-9-10---10-9-10-7-|
 |---------7-----------|
 |---------------------|

 Am
 You're in for surprise,

 you're in for a shock

 in Londontown streets

 when there is darkness and fog.
      C           G
 When you least expect me
     F             E         A
 and you turn your back I'll attack

 I smile when I'm sneaking

 thru shadows by the wall

 I laugh whilst I'm creeping

 though you won't hear me at all.
 C          G
 Oh hear my warning
 F               E
 never turn your back
        A
 on the ripper

 You'll soon shake with fear

 never knowing if I'm near

 I'm sly and I'm shameless

 nocturnal and nameless
 C                G
 except for the ripper

 or if you like

 Jack the knife

 A
 On a back alley street

 is where we'll prob'ly meet

 underneath a gas lamp

 where the air is cold and damp

 I'm a nasty surprise
       F
 I'm a devil in disguise
       E
 I'm a footstep at night
 A
 I'm a scream out with fright
 C           G
 Oh, hear my warning,
 F               E
 never turn your back
        A
 on the ripper
file:/home/stud4/tdiehl/ripper.tab     
Добавлено: 17.08.2013
Другие материалы по этой песне:

Страница создана 27.02.2012
http://primanota.ru/judas-priest/the-ripper-chords.htm
Привет, Гость.
Предлагаем пройти революционный курс по гитаре.
Подарок от PrimaNota.Ru, забирай!