PrimaNota.ru - самый крупный в мире бесплатный архив песенных текстов, аккордов, табулатур и нот


Judas Priest - Judas Rising - текст песни, таба, бас-таба, видео

Регистрация Запомнить меня
Войти через:  Facebook Google Twitter Vk Yandex Mail.ru

Judas Priest - Judas Rising - текст песни, таба, бас-таба, видео

Печатать
Просмотров: 289
Авторы: Glenn Tipton, Rob Halford, Kenneth Downing

Igot the intro for you.
judas rising 
satandard tunning
Ian/alexi1

|--------0-----------0-----------0-----------0-----------0-|
|--0-5-7---7-5-0-5-7---7-5-0-5-7---7-5-0-5-7---7-5-0-7-8---|
|----------------------------------------------------------|
|----------------------------------------------------------|
|----------------------------------------------------------|
|----------------------------------------------------------|

|-----------0-----------0-----------0------------0-------------0-|
|-8-7-0-7-8---8-7-0-7-8---8-7-0-7-8---8-7-0-8-10---10-8-0-8-10---|
|----------------------------------------------------------------|
|----------------------------------------------------------------|
|----------------------------------------------------------------|
|----------------------------------------------------------------|

|-------------0-------------0-------------|
|-10-8-0-8-10---10-8-0-8-10---10-8-0------|
|-----------------------------------------|
|-----------------------------------------|
|-----------------------------------------|
|-----------------------------------------|

|--------0-----------0-----------0-----------0-----------0-|
|--0-5-7---7-5-0-5-7---7-5-0-5-7---7-5-0-5-7---7-5-0-7-8---|
|----------------------------------------------------------|
|----------------------------------------------------------|
|----------------------------------------------------------|
|----------------------------------------------------------|

|-----------0-----------0-----------0------------0-------------0-|
|-8-7-0-7-8---8-7-0-7-8---8-7-0-7-8---8-7-0-8-10---10-8-0-8-10---|
|----------------------------------------------------------------|
|----------------------------------------------------------------|
|----------------------------------------------------------------|
|----------------------------------------------------------------|

|-------------0-------------0--------------0---------------0--|
|-10-8-0-8-10---10-8-0-10-8---10-8-0-10-12---12-10-0-10-12----|
|-------------------------------------------------------------|
|-------------------------------------------------------------|
|-------------------------------------------------------------|
|-------------------------------------------------------------|

|---------------0---------------0---------------0---------------0--|
|-12-10-0-10-12---12-10-0-10-12---12-10-0-12-15---15-12-0-12-15----|
|------------------------------------------------------------------|
|------------------------------------------------------------------|
|------------------------------------------------------------------|
|------------------------------------------------------------------|

|---------------0---------------15---------------15---------------15-|
|-15-12-0-12-15---15-12-0-15-17----17-15-0-15-17----17-15-0-15-17----|
|--------------------------------------------------------------------|
|--------------------------------------------------------------------|
|--------------------------------------------------------------------|
|--------------------------------------------------------------------|

|----------12~~~\-----------------|
|--17-15-0-15b~~/-fade-out--------|
|---------------------------------|
|---------------------------------|
|---------------------------------|
|---------------------------------|

thats the intro, i'm shure theres a few mistakes in there but its a start.
i recomend lots of reverb/echo.
Ian/Alexi1
Добавлено: 06.06.2012
Другие материалы по этой песне:

Страница создана 21.02.2012
http://primanota.ru/judas-priest/judas-rising-chords.htm
Привет, Гость.
Предлагаем пройти революционный курс по гитаре.
Подарок от PrimaNota.Ru, забирай!