PrimaNota.ru - самый крупный в мире бесплатный архив песенных текстов, аккордов, табулатур и нот


Judas Priest - Here Come The Tears - текст песни, таба, видео

Регистрация Запомнить меня
Войти через:  Facebook Google Twitter Vk Yandex Mail.ru

Judas Priest - Here Come The Tears - текст песни, таба, видео

Печатать
Просмотров: 229
Авторы: Glenn Tipton, Rob Halford

*** JUDAS PRIEST - Here Come The Tears (intro) ***

Written by Rob Halford & Glenn Tipton (1977)

Tabbed by Jon Malmin (16/9-2010)
Email: jogusmal@hotmail.com
Tuning: Standard E

The nice intro to this ballad needs a tab. So here we go...
First, strum a Bm7:
e|----2-------|
B|----3-------|
G|----2-------|
D|----4-------|
A|----2-------|
E|------------|

Then, play the part below twice, and slow it down during the very last bar.

  "Once I dreamed..."       
e|---------------|----------0------|--------------0---------|-----------|
B|--0------------|----0---0--------|----0---0---0---0-------|--0--------|
G|--0------------|------0----------|------0---0-------0-----|--0--------|
D|--2------------|--1--------------|--0------------------0--|--2--------|
A|--2------------|-----------------|------------------------|--3--------|
E|--0------------|-----------------|------------------------|-----------|

e|------------0--------|-------------------|
B|--------1-0---0h1----|--0----------------|
G|------0-----------0--|--0----------------|
D|----2----------------|--4-------0--------|
A|--0------------------|--2-----0---0---0--|
E|---------------------|------3-------2----|
                              
e|------------0----|------------0----|------------0----|------------0--|
B|----------0------|----------0------|----------0------|----------0----|
G|--------0--------|--------0--------|--------0--------|--------0------|
D|------4----------|------2----------|------4----------|------2--------|
A|----2------------|----4------------|----2------------|----4----------|
E|--0--------------|--0--------------|--0--------------|--0------------|    

That's it! Of course, you should also listen carefully to the song to be able to master it.
To sound like Glenn, you'll also need a flanger effect. And remember to let the notes ring out.
Have fun!
Добавлено: 24.06.2012
Другие материалы по этой песне:

Страница создана 23.03.2012
http://primanota.ru/judas-priest/here-come-the-tears-chords.htm
Привет, Гость.
Предлагаем пройти революционный курс по гитаре.
Подарок от PrimaNota.Ru, забирай!