PrimaNota.ru - самый крупный в мире бесплатный архив песенных текстов, аккордов, табулатур и нот


Judas Priest - Hellionelectric Eye - аккорды и текст, таба, видео

Регистрация Запомнить меня
Войти через:  Facebook Google Twitter Vk Yandex Mail.ru

Judas Priest - Hellionelectric Eye - аккорды и текст, таба, видео

Печатать
Просмотров: 234
Hellionelectric Eye
Judas Priest
Standard Tuning EADGBe

This is an easier version to play on acoustic guitar.


Intro:

|------------------------7--------------------------|
|----8-7-------8-7---------10--8--------------------|
|--------9~--------9~--------------------7---9------|
|--9---------9---------9--------------10-------9~---|
|----------------------------------10---------------|
|---------------------------------------------------|


Main riff:

  E             C            Am            B
|--------------------------------------------------------|
|--------------------------------------------------------|
|---------------5------------2-------------4-------------|
|-2---2--4--5---5---2--4--5--2---2--4--5---4---4--5--4---|
|-2-------------3------------0-------------2-------------|
|-0------------------------------------------------------|


Verse 1:

A              G A                     G A             G A                G A
Up here in space I'm looking down on you my lasers trace everything you do
E              D E                                    D E                  D E           D E
You think your private lives think nothing of the kind theres no true escape Im watching 
all the time

Pre-Chorus 1:

C                Am                 D                 B
I'm made of metal my circuits gleam I am perpetual I keep the country clean


Chorus 1:

D     A  G   E        D
I'm elected electric spy
D     A  G     E       D
I'm protected electric eye

Verse 2:

A              G A                     G A             G A                G A
Always in focus you can't feel my stare I zoom into you you don't know I'm there
E              D E                                    D E                  D E           D E
I take a pride in probing all your secret moves my tearless retina takes pictures that 
can prove

Pre-Chorus 2:

C                Am                 D                 B
I'm made of metal my circuits gleam I am perpetual I keep the country clean


Chorus 2:

D     A  G   E        D
I'm elected electric spy
D     A  G     E       D
I'm protected electric eye


Bridge:

A       G      A      G   A       G      A       G
Electric eye, in the sky feel my stare, always there
A       G      A      G   A       G      A       G
There's nothing you can do about it develop and expose
A       G      A      G   A       G      A       G
I feed upon your every thought And so my power grows

Pre-Chorus 3:

C                Am                 D                 B
I'm made of metal my circuits gleam I am perpetual I keep the country clean


Chorus 3:

D     A  G   E        D
I'm elected electric spy
D     A  G     E       D
I'm protected electric eye
Добавлено: 18.06.2015
Другие материалы по этой песне:

Страница создана 28.02.2012
http://primanota.ru/judas-priest/hellionelectric-eye-chords.htm
Привет, Гость.
Предлагаем пройти революционный курс по гитаре.
Подарок от PrimaNota.Ru, забирай!