PrimaNota.ru - самый крупный в мире бесплатный архив песенных текстов, аккордов, табулатур и нот


Judas Priest - Freewheel Burning - текст песни, таба, бас-таба, видео

Регистрация Запомнить меня
Войти через:  Facebook Google Twitter Vk Yandex Mail.ru

Judas Priest - Freewheel Burning - текст песни, таба, бас-таба, видео

Печатать
Просмотров: 272
Авторы: Glenn Tipton, Rob Halford, Kenneth Downing

Band :judas priest
Song : Freewheel Burning
Album :Defenders of the Faith

Copyright 1982 COLUMBIA RECORDS

Tuning E 

this tabs is from the awesome solo of glenn tipton , 
thi tab have some corrections in the bars and the notes for guitar 

|--22br----Lb~---|
|----------------|
|----------------|
|----------------|
|----------------|
|----------------|

|----12----------12------------------------|----------------------------|
|-12-----15--12------15--12------12--15b---|----12--15--12--------------|
|--------------------------14--------------|-----------------14--12-----|
|------------------------------------------|----------------------------|
|------------------------------------------|----------------------------|
|------------------------------------------|----------------------------|

|----------------------------------------|
|----------------------------------------|
|----------------------------------------|
|----------------------------------------|
|-----------------------------5--7--9----|
|--3--5--7--3--5--7--5--7--9-------------|

|-----------------------------------------|
|-----------------------------------------|
|-----------------------------------------|
|-----------------------------------------|
|-------------------------------7--9--11--|
|--5--7--9--7--9--11--7--9--11------------|

|----------------------------------------------------|
|----------------------------------------------------|
|----------------------------------------------------|
|--------------------------------------12--13--------|
|--------------12--14------12--13--14----------14----|
|--12--14--15----------15----------------------------|


|----------------------------------------------------|
|--------------------15b---15p----12----13-----------|
|--------------12------------------------------14----|
|--12--13--14----------------------------------------|
|----------------------------------------------------|
|----------------------------------------------------|

|----------/17----|-----------------------------------------|
|-----------------|-----------------------------------------|
|--\--------------|---4br---------2---4--2-----2--4--2------|
|-----------------|------------4------------4-----------4---|
|-----------------|-----------------------------------------|
|-----------------|-----------------------------------------|

|------------------------------|------------------------------|
|------5-----------------------|------5-----------------------|
|--7b-----<>8--5--7--5------5--|--7b-----<>8--5--7--5------5--|
|-----------------------7~-----|-----------------------7~-----|
|------------------------------|------------------------------|
|------------------------------|------------------------------|
                                           
|--------------------------|----------------------------------|
|--------------------------|--------------------17--19--20----|
|--5-----------------------|----------------------------------|
|-----7--5-----7-----5-----|----------------------------------|
|-----------7-----7-----7--|--6--7-----7----------------------|
|--------------------------|--------8-----5~------------------|

|--17----------------------15--17--17----------------|------17--20-------------------|
|------18--17--16--17--17--------------18-18-17------|--17----------17h-20-----------|
|-----------------------------------------------20---|---------------------17~---17--|
|----------------------------------------------------|-------------------------------|
|----------------------------------------------------|-------------------------------|
|----------------------------------------------------|-------------------------------|

|------------------------------------------------|
|------------------------------17----------------|
|--17--17--16---L--16--16--19------19--16--18----|
|------------------------------------------------|
|------------------------------------------------|
|------------------------------------------------|

|-----------------------------------------|--17------17--20b----20--17--|
|--17-----------------------------20b-----|------20---------------------|
|------18p-17-----------------------------|-----------------------------|
|-------------19--17----------------------|-----------------------------|
|---------------------19------------------|-----------------------------|
|-------------------------17--------------|-----------------------------|

|--20--17------17--------------------------------|---------------------------|
|----------20------20--17--20--17------17-20-17--|--15br---13----------------|
|----------------------------------19------------|--------------14br---12----|
|------------------------------------------------|---------------------------|
|------------------------------------------------|---------------------------|
|------------------------------------------------|---------------------------|

 enjoy the tab

..  - palm mute          /  - slide up to
 \  - slide down to      ~  - vibrato
 h  - hammer on          b  - bend
 p  - pull off            Suffixes for bend
                          ph - pinch harmonic                         
f - full bend             h - half bend
*  - see comment           r - release      t - tap bend
X  - percussion mute       ~ - vibrato bend
@  - slight palm mute     () - ghost note, sustained note
Добавлено: 18.05.2012
Другие материалы по этой песне:

Страница создана 27.02.2012
http://primanota.ru/judas-priest/freewheel-burning-chords.htm
Привет, Гость.
Предлагаем пройти революционный курс по гитаре.
Подарок от PrimaNota.Ru, забирай!