PrimaNota.ru - самый крупный в мире бесплатный архив песенных текстов, аккордов, табулатур и нот


Juanes - Clase De Amor - текст песни, таба, видео

Регистрация Запомнить меня
Войти через:  Facebook Google Twitter Vk Yandex Mail.ru

Juanes - Clase De Amor - текст песни, таба, видео

Печатать
Просмотров: 176
Artist: Juanes
Album: La Vida Es Un Ratico
Song: Clase de Amor
___________________________________________________________________

Notation Key:
    p: pull-off
    h: hammer-on
    ~: ring
    /: slide-up
    x: not played
Intro:
e|---------------------------------------------------------------|
B|-----------------------------------/15~------------------------|
G|-14p12h14-(14)~~---10-12~-/15-12-14----14-13-12~~14------------|
D|----------------------------------------------------15-14-12---|
A|---------------------------------------------------------------|
E|---------------------------------------------------------------|

Verse:
     Tu bien lo sabes que nadie como yo te amó que nadie nunca te entrego. El corazón de
manera como lo hice yo ya no puedo aguantar esto más. Creo que solo puedo estar mejor.
que mal acompañado.
e|------------------------------------------------------------------|
B|------------------------------------------------------------------|
G|-o--------------------12-x12-xxx12-xx12--10-x10-xxx10--xx10--9-x9-|
D|---12-x12-xxx12--xx12-12-x12-xxx12-xx12--10-x10-xxx10--xx10--9-x9-|
A|-o-12-x12-xxx12--xx12-10-x10-xxx10-xx10--8 -x8 -xxx8 --xx8 --7-x7-|
E|---10-x10-xxx10--xx10---------------------------------------------|

e|--------------|
B|--------------|
G|-xxx9--xx9--o-|
D|-xxx9--xx9----|
A|-xxx7--xx7--o-|
E|--------------|

Pre-Chorus:
     Esto no fue en lo que tu y yo. Habíamos quedado de hacer ayer.
e|-------------------------------------------------|-------------------|
B|-------------------------------------------------|-------------------|
G|-------------------------------------------------|-------------------|
D|-8-88-888-9-99-999-11-1111-111111-11-1111-111111-|-8-88-888-9-99-999-|
A|-8-88-888-9-99-999-11-1111-111111-11-1111-111111-|-8-88-888-9-99-999-|
E|-6-66-666-7-77-777-9 -9 9 -9 9 9 -9 -9 9 -9 9 9 -|-6-66-666-7-77-777-

e|-------------------------------|
B|-------------------------------|
G|-------------------------------|
D|-10-1010-101010-11-1111-111111-|
A|-10-1010-101010-11-1111-111111-|
E|-8 -8 8 -8 8 8 -9 -9 9 -9 9 9 -|

Verse:
     Se que después de la tormenta viene la calma, pero no creo que en ti haya calma y
tenerla con tanto drama. Es imposible que me quede ahora. Es imposible si tú me ignoras y
lloras por que me alejo.
e|----------------------------------------|--------------------------|
B|----------------------------------------|--------------------------|
G|-o--------------------12-x12-xxx12-xx12-|-10-x10-xxx10--xx10--9-x9-|
D|---12-x12-xxx12--xx12-12-x12-xxx12-xx12-|-10-x10-xxx10--xx10--9-x9-|
A|-o-12-x12-xxx12--xx12-10-x10-xxx10-xx10-|-8 -x8 -xxx8 --xx8 --7-x7-|
E|---10-x10-xxx10--xx10-------------------|--------------------------|

e|--------------|
B|--------------|
G|-xxx9--xx9--o-|
D|-xxx9--xx9----|
A|-xxx7--xx7--o-|
E|--------------|

Pre-Chorus 2:
     Esto no fue en lo que tu y yo. Habíamos quedado de hacer ayer
e|-------------------------------------------------|-------------------|
B|-------------------------------------------------|-------------------|
G|-------------------------------------------------|-------------------|
D|-8-88-888-9-99-999-11-1111-111111-11-1111-111111-|-8-88-888-9-99-999-|
A|-8-88-888-9-99-999-11-1111-111111-11-1111-111111-|-8-88-888-9-99-999-|
E|-6-66-666-7-77-777-9 -9 9 -9 9 9 -9 -9 9 -9 9 9 -|-6-66-666-7-77-777-

e|-------------------------------|-------------------------------|
B|-------------------------------|-------------------------------|
G|-------------------------------|-------------------------------|
D|-10-1010-101010-10-1010-101010-|-11-1111-111111-11-1111-111111-|
A|-10-1010-101010-10-1010-101010-|-11-1111-111111-11-1111-111111-|
E|-8 -8 8 -8 8 8 -8 -8 8 -8 8 8 -|-9 -9 9 -9 9 9 -9 -9 9 -9 9 9 -|

Chorus:
     Si esta es la clase de amor que tú me ofreces. Estas equivocada no puedo aceptarla.
esta  es tu forma de amar mejor me alejo búscame si quieres cuando estés curada. Mira
hundiste el botón y mi corazón exploto. Veo que no tienes más remedio que pagar. Mira 
hundiste el botón y mi corazón exploto. Veo que no tienes más remedio que pagar.
e|------------------|----------------------|----------------------|
B|------------------|----------------------|----------------------|
G|--7---7---7---7---|-5-xx5-55-55-555-5555-|----------------------|
D|--7---7---7---7---|-5-xx5-55-55-555-5555-|-8-xx8-88-88-888-8888-|
A|--5---5---5---5---|-3-xx3-33-33-333-3333-|-8-xx8-88-88-888-8888-|
E|------------------|----------------------|-6-xx6-66-66-666-6666-|

e|----------------------|----------------------|----------------------|
B|----------------------|----------------------|----------------------|
G|----------------------|-7-xx7-77-77-777-7777-|-5-xx5-55-55-555-5555-|
D|-7-xx7-77-77-777-7777-|-7-xx7-77-77-777-7777-|-5-xx5-55-55-555-5555-|
A|-7-xx7-77-77-777-7777-|-5-xx5-55-55-555-5555-|-3-xx3-33-33-333-3333-|
E|-5-xx5-55-55-555-5555-|----------------------|----------------------|

e|----------------------|----------------------||----------------------|
B|----------------------|----------------------||----------------------|
G|----------------------|----------------------||----------------------|
D|-8-xx8-88-88-888-8888-|-7-xx7-77-77-777-7777-||-5-xx5-55-55-555-5555-|
A|-8-xx8-88-88-888-8888-|-7-xx7-77-77-777-7777-||-5-xx5-55-55-555-5555-|
E|-6-xx6-66-66-666-6666-|-5-xx5-55-55-555-5555-||-3-xx3-33-33-333-3333-|

e|----------------------|----------------------|----------------------|
B|----------------------|----------------------|----------------------|
G|-7-xx7-77-77-777-7777-|----------------------|-7-xx7-77-77-777-7777-|
D|-7-xx7-77-77-777-7777-|-7-xx7-77-77-777-7777-|-7-xx7-77-77-777-7777-|
A|-5-xx5-55-55-555-5555-|-7-xx7-77-77-777-7777-|-5-xx5-55-55-555-5555-|
E|----------------------|-5-xx5-55-55-555-5555-|----------------------|

e|----------------------|----------------------|----------------------|
B|----------------------|----------------------|----------------------|
G|----------------------|-7-xx7-77-77-777-7777-|----------------------|
D|-5-xx5-55-55-555-5555-|-7-xx7-77-77-777-7777-|-7-xx7-77-77-777-7777-|
A|-5-xx5-55-55-555-5555-|-5-xx5-55-55-555-5555-|-7-xx7-77-77-777-7777-|
E|-3-xx3-33-33-333-3333-|----------------------|-5-xx5-55-55-555-5555-|

e|------------------|
B|------------------|
G|--7---7---7---7---|
D|--7---7---7---7---|
A|--5---5---5---5---|
E|------------------|

Bridge (verse chords):
Si algún día tú te curas
Si algún día yo perdono
Puede que quizás podamos
Regresar y darnos todo
Por ahora no…
Por ahora no…
Por ahora no…
Por ahora no, lo siento…

Pre-Chorus 2:
Esto no fue en lo que tu y yo
Habíamos quedado de hacer ayer

Chorus 1:
Si esta es la clase de amor que tú me ofreces
Estas equivocada no puedo aceptarla
Si esta  es tu forma de amar
Mejor me alejo búscame si quieres
Cuando estés curada
Si esta es la clase de amor que tú me ofreces
Estas equivocada no puedo aceptarla
Si esta  es tu forma de amar
Mejor me alejo búscame si quieres
Cuando estés curada

Chorus 2:
Mira que hundiste el botón
Y mi corazón exploto
Veo que no tienes más remedio que pagar
Mira que hundiste el botón
Y mi corazón exploto
Veo que no tienes más remedio que pagar


Intro
Verse (Bass and Drums)
Pre-Chorus 2
Chorus (1st half 2x)
Chorus (2nd half 2x)
Добавлено: 13.06.2012
Другие материалы по этой песне:
  • Аккорды и текст

Страница создана 13.06.2012
http://primanota.ru/juanes/clase-de-amor-chords.htm
Привет, Гость.
Предлагаем пройти революционный курс по гитаре.
Подарок от PrimaNota.Ru, забирай!