PrimaNota.ru - самый крупный в мире бесплатный архив песенных текстов, аккордов, табулатур и нот


Joy Division - Reaction - таба, видео

Регистрация Запомнить меня
Войти через:  Facebook Google Twitter Vk Yandex Mail.ru

Joy Division - Reaction - таба, видео

Печатать
Просмотров: 179
Уроки эстрадного вокала в Санкт-Петербурге
Joy Division - Reaction

This is an old Warsaw song. No studio version of this song exists. I am referring to a rehearsal recording from
August or September 1977. The pitch of said rehearsal varies between sources. My source is higher pitched and
lasts for about 2:46. I believe the live version from Rock Garden, Middlesbrough (September 14, 1977) is two
notes lower in pitch, so keep that in mind when you play the song.

The strumming can vary. Bernard sometimes dampened the strings a bit with his palm. The guitar part isn't super
consistent. Sometimes he plays the whole chord and then others he strikes one string. He also makes a few
mistakes, resulting in a bum note struck or the wrong note in a riff. Just mix it up a bit when you play it and
you should be fine. Listen to the song for the strumming timing.

Song Structure:
Intro (x2)
Riff 1 (x3)
Riff 2 (x2)
Riff 1 (x4)
Riff 2 (x2)
Riff 1 (x3)
Riff 2 (x1)
Intro (x1)
Riff 1 (x3)
Riff 2 (x2)
Riff 1 (x4)
Riff 2 (x2)
Riff 1 (x4)
Intro (x2)
Riff 1 (x3)
Ending (x1)


Intro/Arpeggio Riff:

E|--------------------------------------------------
B|--------------------------------------------------
G|9-7-9-6-6-9-6-6-9-9-7-7-6-6-6-5-5-5-0-------------
D|--------------------------------------------------
A|--------------------------------------------------
E|--------------------------------------------------

Riff 1

E|--------------------------------------------------
B|--------------------------------------------------
G|9-9-9-7-7-7-6-6-6-5-5-5-5-------------------------
D|9-9-9-7-7-7-6-6-6-5-5-5-5-------------------------
A|7-7-7-5-5-5-4-4-4-3-3-3-3-------------------------
E|--------------------------------------------------

Riff 2

E|--------------------------------------------------
B|--------------------------------------------------
G|9-7-9-6-6-9-6-6-9-9-7-7-6-6-6-5-5-5-(0)-----------
D|9-7-9-6-6-9-6-6-9-9-5-5-6-6-6-5-5-5--0------------
A|7-5-7-4-4-7-4-4-7-7-5-5-4-4-4-3-3-3-(0)-----------
E|--------------------------------------------------

Ending

E|--------------------------------------------------
B|--------------------------------------------------
G|7-9-7-9-9-----------------------------------------
D|5-9-7-9-9-----------------------------------------
A|5-7-5-7-7-----------------------------------------
E|--------------------------------------------------
Добавлено: 18.11.2015
Другие материалы по этой песне:
  • Аккорды и текст

Страница создана 18.11.2015
http://primanota.ru/joy-division/reaction-chords.htm
Привет, Гость.
Предлагаем пройти революционный курс по гитаре.
Подарок от PrimaNota.Ru, забирай!