PrimaNota.ru - самый крупный в мире бесплатный архив песенных текстов, аккордов, табулатур и нот


Journey - Edge Of The Moment - таба, видео

Регистрация Запомнить меня
Войти через:  Facebook Google Twitter Vk Yandex Mail.ru

Journey - Edge Of The Moment - таба, видео

Печатать
Просмотров: 209
Авторы: Neal Schon, Jonathan Cain

This is the intro solo 
Guitar I -Neal Schon

Guitar I
D#-----0----0----0----0----0----0----0----0----0----0----0----0-\
A#--17---15---12---10---12---9----10---12---13---12---10---12--- \
F#--------------------------------------------------------------  \
C#--------------------------------------------------------------  / 6x
G#-------------------------------------------------------------- /
D#--------------------------------------------------------------/


Guitar I
D#---------15/---------------15----------------14/-------------\
A#--12-12------12------12-12----12----------------------------- \
F#---------------------------------14----14-14-----14----------  \
C#-------------------------------------------------------------   \
G#-------------------------------------------------------------    \
D#-------------------------------------------------------------     \
                                                                     \
                                                                      \
                                                                       \
                                                                        \
D#--------14/--------------14/---------------------12/---------          \
A#-------------------------------------------------------------           \
F#--14-14-----14-----14-14-----14----12------12-12-----12------           /
C#-------------------------------------------------------------          /2x
G#-------------------------------------------------------------         /
D#-------------------------------------------------------------        /
                                                                      /
                                                                     /
                                                                    /
D#-----------------------------------------------------------------/
A#---------------15/----------------------------------------------/
F#--11----11-11------11/-----------------------------------------/
C#--------------------------------------------------------------/
G#-------------------------------------------------------------/
D#------------------------------------------------------------/
Добавлено: 14.04.2012
Другие материалы по этой песне:
  • Аккорды и текст

Страница создана 14.04.2012
http://primanota.ru/journey/edge-of-the-moment-chords.htm
Привет, Гость.
Предлагаем пройти революционный курс по гитаре.
Подарок от PrimaNota.Ru, забирай!