PrimaNota.ru - самый крупный в мире бесплатный архив песенных текстов, аккордов, табулатур и нот


Joss Stone - Tell Me Bout It - текст песни, таба, видео

Регистрация Запомнить меня
Войти через:  Facebook Google Twitter Vk Yandex Mail.ru

Joss Stone - Tell Me Bout It - текст песни, таба, видео

Печатать
Просмотров: 157
tabbed by: qweyet Gi

The guitar had very little significance, so I added the bass to it.
Also at the very end, its very subtle, but the guitar is playing
a note.
Leave your criticisms.

      Fmaj     Bbmaj
e|-----1--------1-----|
B|-----1--------3-----|
G|-----2--------3-----|
D|-----3--------3-----|
A|-----3--------1-----|
E|-----1--------x-----|

Intro/Verse 1 Riff
      Fmaj          Bbmaj           Fmaj          Bbmaj
e|--------1-------1-------1-----1-1-----1-------1-------1-------1----------|
B|--------1-------1-------3-----3-3-----1-------1-------3-------3----------|
G|--------2-------2-------3-----3-3-----2-------2-------3-------3----------|
D|-------------------------------------------------------------------------|
A|------------------1-1-1---1-1-------------------1-1-1---1-1-1------------|
E|----1-1---1-1-1-------------------1-1---1-1-1----------------------------|

      Fmaj          Bbmaj             Fmaj          Bbmaj
e|--------1-------1-------1-----1-1-------1-------1-------1-----1-1--------|
B|--------1-------1-------3-----3-3-------1-------1-------3-----3-3--------|
G|--------2-------2-------3-----3-3-------2-------2-------3-----3-3--------|
D|-------------------------------------------------------------------------|
A|------------------1-1-1---1-1---------------------1-1-1---1-1------------|
E|----1-1---1-1-1---------------0-1---1-1---1-1-1---------------0-1--------|

  Chorus Riff
e|--------------------------------|
B|----------------9---------9-----|
G|----8----8----8-----7---7-------|
D|------10---10---------8---------|
A|--------------------------------|
E|--------------------------------|

  Verse 2 Riff
e|--------------------------------|
B|---------10---------------------|
G|-------8------7-----------------|
D|----10--------8-----------------|
A|--------------------------------|
E|--------------------------------|

Intro:
Fmaj
 Bbmaj    Fmaj                    Bmaj
Joss, how much lovin' do you need
Fmaj
Do you need it once a day
Bmaj        Fmaj                Bbmaj
Twice a day, three times a day, four times a day

You gotta let me know

Verse 1:
 Fmaj                           Bbmaj
I need a little lovin' at least two times a day
 Fmaj                     Bbmaj
So when I call ya boy, you better run here right away
 Fmaj                            Bbmaj
Let's have a show of hands, who's addicted to their man
 Fmaj                                    Bbmaj
If I could do the things I want to you, you'd be changing all your plans
 Fmaj                      Bbmaj
You wanna say I'm yours, I wanna say get it
 Fmaj                  Bbmaj
You wanna say, so say, I know what you're thinking babe

Chorus:
 Fmaj
So tell me babe (Tell me 'bout it)
 Bbmaj
Tell me how I feel (How you feel)
 Fmaj
And if the feeling's real (Feeling's real)
 Bbmaj
Tell me what's the deal (Hey, hey, hey)
 Fmaj
Tell me 'bout it (Tell me 'bout it)
 Bbmaj
Tell you how I feel (How you feel)
 Fmaj
And if the feeling's real (Feeling's real)
 Bbmaj
Let's seal the deal (Hey, hey, hey)

Verse 2:
 Fmaj                       Bbmaj
What you think about me and you being together
 Fmaj                       Bbmaj
Could you bring to share my cold and stormy weather?
 Fmaj             Bbmaj
Have you got this under control
 Fmaj                    Bbmaj
Show me you know about a woman's soul

[Chorus]

Verse 3: (percussion only)
I'll make you feel the way you wanna feel
I love how it's real we're one in two minds
Maybe it will stick you'd better be quick
I hope that you heard me right
Tell me tell me cause I won't wait suspense I just hate so spit it out now
If you're feeling like I do, won't you come and do it to me

(Chorus Riff)
So tell me babe

[Chorus]

Outro: (strummed quick to fit into a quarter of time, done sixteen times)
e|--------------------------------|
B|----9-9-9-9-9-------------------|
G|--------------------------------|
D|--------------------------------|
A|--------------------------------|
E|--------------------------------|

Tell me bout it, tell me bout it baby
Tell me bout it, tell me bout it baby
Mmm, I really wanna know
Come on now what's your story
Tell me, tell me baby, tell me baby
Добавлено: 27.05.2012
Другие материалы по этой песне:
  • Аккорды и текст

Страница создана 23.04.2012
http://primanota.ru/joss-stone/tell-me-bout-it-chords.htm
Привет, Гость.
Предлагаем пройти революционный курс по гитаре.
Подарок от PrimaNota.Ru, забирай!