PrimaNota.ru - самый крупный в мире бесплатный архив песенных текстов, аккордов, табулатур и нот


Joshua Radin - Paperweight - аккорды и текст, таба, видео

Регистрация Запомнить меня
Войти через:  Facebook Google Twitter Vk Yandex Mail.ru

Joshua Radin - Paperweight - аккорды и текст, таба, видео

Печатать
Просмотров: 591
Paperweight
Joshua Radin
Paperweight
Joshua Radin (feat. Schulyer Fisk)
Tabbed by Cam Nielsen

Standard Tuning
(I play Capo 2, but do what you like)

Intro (Play Verse progression twice) 0:00-0:15

Verse (Em----Am----Dsus----G-(F#-E)-Em----Am----Dsus--------)

e|-0---0--—0---3-----------0---0---0------|
B|-0--h1---3---0-----------0--h1---3------|
G|-0--h2---2---0-----------0--h2---2------|
D|-2--h2---0---0-----------2--h2---0------|
A|-2---0---x---2-----------2---0---x------|
E|-0---x---x---3---3-2-0---0---x---x------|

Pre-Chorus (C/G----G----Em----D----C/G----G----D----D5----)

e|-0---3—--0---2---0---3---2---5---|
B|-1---0---0---3---1---0---3---3---|
G|-0---0-—-0---2---0---0---2---2---|
D|-2---0---2---0---2---0---0---0---|
A|-3---2---2---x---3---2---x---x---|
E|-3---3---0---x---3---3---x---x---|

Chorus (G----D----G-G/A-G/B-C----G----D----C--C-G/B-G/A-G----D----)

e|-3---2—--3-3--3-3---3---2---3-3-3-3---2---|
B|-3---3---3-3--3-3---3---3---3-3-3-3---3---|
G|-0---2-—-0-0--0-0---0---2---0-0-0-0---2---|
D|-0---0---0-0--0-h2--0---0---2-0-0-0---0---|
A|-2---x---2-0-h2-3---2---x---3-2-0-2---x---|
E|-3---x---3-x--x-x---3---x---x-x-x-3---x---|

Bridge (Am----D--G----C----) 2:13-2:37

e|-0---2—3---0---------------3---2---3---0---|
B|-1---3-0---1---------------0---3---0---1---|
G|-2---2-0---0---- PLAY -----0---2---0---0---|
D|-2---0-0--h2--- TWICE -----0---0---0---2---|
A|-0---x-2--h3---------------2---x---2---3---|
E|-x---x-3---0---------------3---x---3---x---|

Interlude (G----Dsus--D--C----G----D----) 2:37-2:46

e|-3--0—h2-0---3---------2---|
B|-0--3--3-1---0---------3---|
G|-0--2--2-0---0---------2---|
D|-0--0--0-2---0---------0---|
A|-2--x--x-3---2---------x---|
E|-3--x--x-x---3---3-2-0-x---|


Those are all the parts of the song and this is the play order;

Intro
Verse (x2)
Pre-Chorus
Chorus (x2)
Verse (x2)
Pre-Chorus
Chorus(x2)
Bridge
Interlude
Chorus(x2)
Verse (x2)

The end!  Strumming pattern is incredibly simple...very repetitive.  I chose different 
for some chords because i think they sound better, let me know what you think.
Добавлено: 19.06.2013
Другие материалы по этой песне:
  • Аккорды и текст

Страница создана 19.06.2013
http://primanota.ru/joshua-radin/paperweight-chords.htm
Привет, Гость.
Предлагаем пройти революционный курс по гитаре.
Подарок от PrimaNota.Ru, забирай!